Bullet For My Valentine - Room 409 Chords & Tabs

 

Room 409 Chords & Tabs

Bullet For My Valentine Chords & Tabs

Version: 1 Type: Tab 0 ratings
1 star 2 stars 3 stars 4 stars 5 stars
comments

Room 409 Tab

Tuning - Drop C


Guitar 1

D|-----------------------------------------|-------------------------------------------|
A|-----------------------------------------|-------------------------------------------|
F|-----------------------------------------|-------------------------------------------|
C|--3-------3------------------------------|--2-------2--------------------------------|
G|----5-5-5---5-5-5--0--0-0-0--0-0-0-------|----3-3-3---3-3-3--0--0-0-0--0-0-0---------|
C|-----------------------------------------|-------------------------------------------|
PM                   .  . . .  . . .                           .  . . .  . . .


D|-----------------------------------------|-------------------------------------------|
A|-----------------------------------------|-------------------------------------------|
F|-----------------------------------------|-------------------------------------------|
C|--3-------3------------------------------|--2-------2--------------------------------|
G|----5-5-5---5-5-5--0--0-0-0--0-0-0-------|----3-3-3----------------------------------|
C|-----------------------------------------|-------------------------------------------|
PM                   .  . . .  . . .


Guitar 2

D|-----------------------------------------|-------------------------------------------|
A|-----------------------------------------|-------------------------------------------|
F|-----------------------------------------|-------------------------------------------|
C|-----------------------------------------|-------------------------------------------|
G|-----------------------------------------|-------------------------------------------|
C|--8-0-0-0-8-0-0-0--0--0-0-0-0-0-0--------|--5-0-0-0-5-0-0-0--0-0-0-0-0---------------|
PM  . . . . . . . .  .  . . . . . .           . . . . . . . .  . . . . .


D|-----------------------------------------|-------------------------------------------|
A|-----------------------------------------|-------------------------------------------|
F|-----------------------------------------|-------------------------------------------|
C|-----------------------------------------|-------------------------------------------|
G|-----------------------------------------|-------------------------------------------|
C|--8-0-0-0-8-0-0-0--0--0-0-0-0-0-0--------|--5-0-0-0-5--------------------------------|
PM  . . . . . . . .  .  . . . . . .           . . . . .


Both Guitars

D|-----------------------------------------|
A|-----------------------------------------|
F|-----------------------------------------|
C|--7-8-7-8--7-8-7-8--8-7------------------|
G|------------------------8-7--------------|
C|-----------------------------------------|
PM


D|-----------------------------------------|-------------------------------------------|
A|-----------------------------------------|-------------------------------------------|
F|-----------------------------------------|-------------------------------------------|
C|--8-0-0-0---8-0-0-0---0--0-0-0--0-0-0----|--5-0-0-0---5-0-0-0--0-0-0-0-0-------------|
G|--8-0-0-0---8-0-0-0---0--0-0-0--0-0-0----|--5-0-0-0---5-0-0-0--0-0-0-0-0-------------|
C|--8-0-0-0---8-0-0-0---0--0-0-0--0-0-0----|--5-0-0-0---5-0-0-0--0-0-0-0-0-------------|
PM                      .  . . .  . . .                          . . . . .


D|-----------------------------------------|-------------------------------------------|
A|-----------------------------------------|-------------------------------------------|
F|-----------------------------------------|-------------------------------------------|
C|--8-0-0-0---8-0-0-0---0--0-0-0--0-0-0----|-------------------------------------------|
G|--8-0-0-0---8-0-0-0---0--0-0-0--0-0-0----|-------------------------------------------|
C|--8-0-0-0---8-0-0-0---0--0-0-0--0-0-0----|--8-7-5-7-5-3--(Rapid-alternate-picking)---|
PM                      .  . . .  . . .


D|-----------------------------------------|-------------------------------------------|
A|-----------------------------------------|-------------------------------------------|
F|-----------------------------------------|-------------------------------------------|
C|--8-0-0-0---8-0-0-0---0--0-0-0--0-0-0----|--5-0-0-0---5-0-0-0--0-0-0-0-0-------------|
G|--8-0-0-0---8-0-0-0---0--0-0-0--0-0-0----|--5-0-0-0---5-0-0-0--0-0-0-0-0-------------|
C|--8-0-0-0---8-0-0-0---0--0-0-0--0-0-0----|--5-0-0-0---5-0-0-0--0-0-0-0-0-------------|
PM                      .  . . .  . . .                          . . . . .


D|-----------------------------------------|---------------------------------------------|
A|-----------------------------------------|---------------------------------------------|
F|-----------------------------------------|---------------------------------------------|
C|--8-0-0-0---8-0-0-0---0--0-0-0--0-0-0----|--8-7-5-7-5-3-0------------------------------|
G|--8-0-0-0---8-0-0-0---0--0-0-0--0-0-0----|--8-7-5-7-5-3-0------------------------------|
C|--8-0-0-0---8-0-0-0---0--0-0-0--0-0-0----|--8-7-5-7-5-3-0------------------------------|
PM                      .  . . .  . . .

Verse

Both Guitars

D|-----------------------------------------|-----------------------------------------------------|
A|-----------------------------------------|-----------------------------------------------------|
F|-----------------------------------------|-----------------------------------------------------|
C|-----------------------------------------|--------------------------------------------Times-2--|(all)
G|----------8-7---------10-7---------12-7--|--2h3p2h3p2h3p2-3h5p3h5p3h5p3------------------------|
C|--0-0-0-0-----0-0-0-0------0-0-0-0-------|-----------------------------------------------------|
PM  . . . .     . . . .      . . . .


Guitar 1

D|-----------------------------------------|-------------------------------------------|
A|-----------------------------------------|-------------------------------------------|
F|-----------------------------------------|-------------------------------------------|
C|--0-0-0-0-10/9-0-0-0-0-12/9-0-0-0-0-5/7--|-------------------------------------------|
G|--0-0-0-0-8-/7-0-0-0-0-10/7-0-0-0-0-3/5--|--2h3p2h3p2h3p2-3h5p3h5p3h5p3--------------|
C|--0-0-0-0------0-0-0-0------0-0-0-0------|-------------------------------------------|
PM  . . . .     . . . .      . . . .


Guitar 2

D|-----------------------------------------|-------------------------------------------|
A|-----------------------------------------|-------------------------------------------|
F|-----------------------------------------|-------------------------------------------|
C|--0-0-0-0-----0-0-0-0------0-0-0-0-------|-------------------------------------------|
G|--0-0-0-0-----0-0-0-0------0-0-0-0-------|--2h3p2h3p2h3p2-3h5p3h5p3h5p3--------------|
C|--0-0-0-0-----0-0-0-0------0-0-0-0-------|-------------------------------------------|
PM  . . . .     . . . .      . . . .

Pre-Chorus

Guitar 1

D|-----------------------------------------|-------------------------------------------|
A|-----------------------------------------|-------------------------------------------|
F|-----------------------------------------|-------------------------------------------|
C|--3-------3------------------------------|--2-------2--------------------------------|
G|----5-5-5---5-5-5--0--0-0-0--0-0-0-------|----3-3-3---3-3-3--0-0-0-0-0---------------|
C|-----------------------------------------|-------------------------------------------|
PM                   .  . . .  . . .                           . . . . .


D|-----------------------------------------|-------------------------------------------|
A|-----------------------------------------|-------------------------------------------|
F|-----------------------------------------|-------------------------------------------|
C|--3-------3------------------------------|--8-8-8-8----------------------------------|
G|----5-5-5---5-5-5--0--0-0-0--0-0-0-------|--8-8-8-8----------------------------------|
C|-----------------------------------------|--8-8-8-8----------------------------------|
PM                   .  . . .  . . .


Guitar 2

D|-----------------------------------------|-------------------------------------------|
A|-----------------------------------------|-------------------------------------------|
F|-----------------------------------------|-------------------------------------------|
C|-----------------------------------------|-------------------------------------------|
G|-----------------------------------------|-------------------------------------------|
C|--8-0-0-0-8-0-0-0--0--0-0-0-0-0-0--------|--5-0-0-0-5-0-0-0--0-0-0-0-0---------------|
PM  . . . . . . . .  .  . . . . . .           . . . . . . . .  . . . . .


D|-----------------------------------------|-------------------------------------------|
A|-----------------------------------------|-------------------------------------------|
F|-----------------------------------------|-------------------------------------------|
C|-----------------------------------------|--8-8-8-8----------------------------------|
G|-----------------------------------------|--8-8-8-8----------------------------------|
C|--8-0-0-0-8-0-0-0--0--0-0-0-0-0-0--------|--8-8-8-8----------------------------------|
PM  . . . . . . . .  .  . . . . . .


Chorus

Both Guitars

D|-----------------------------------------|-------------------------------------------|
A|-----------------------------------------|-------------------------------------------|
F|-----------------------------------------|-------------------------------------------|
C|--8-0-0-0---8-0-0-0---0--0-0-0--0-0-0----|--5-0-0-0---5-0-0-0--0-0-0-0-0-------------|
G|--8-0-0-0---8-0-0-0---0--0-0-0--0-0-0----|--5-0-0-0---5-0-0-0--0-0-0-0-0-------------|
C|--8-0-0-0---8-0-0-0---0--0-0-0--0-0-0----|--5-0-0-0---5-0-0-0--0-0-0-0-0-------------|
PM                      .  . . .  . . .                          . . . . .


D|-----------------------------------------|-------------------------------------------|
A|-----------------------------------------|-------------------------------------------|
F|-----------------------------------------|-------------------------------------------|
C|--8-0-0-0---8-0-0-0---0--0-0-0--0-0-0----|-------------------------------------------|
G|--8-0-0-0---8-0-0-0---0--0-0-0--0-0-0----|-------------------------------------------|
C|--8-0-0-0---8-0-0-0---0--0-0-0--0-0-0----|--8-7-5-7-5-3--(Rapid-alternate-picking)---|
PM                      .  . . .  . . .


D|-----------------------------------------|-------------------------------------------|
A|-----------------------------------------|-------------------------------------------|
F|-----------------------------------------|-------------------------------------------|
C|--8-0-0-0---8-0-0-0---0--0-0-0--0-0-0----|--5-0-0-0---5-0-0-0--0-0-0-0-0-------------|
G|--8-0-0-0---8-0-0-0---0--0-0-0--0-0-0----|--5-0-0-0---5-0-0-0--0-0-0-0-0-------------|
C|--8-0-0-0---8-0-0-0---0--0-0-0--0-0-0----|--5-0-0-0---5-0-0-0--0-0-0-0-0-------------|
PM                      .  . . .  . . .                          . . . . .


D|-----------------------------------------|---------------------------------------------|
A|-----------------------------------------|---------------------------------------------|
F|-----------------------------------------|---------------------------------------------|
C|--8-0-0-0---8-0-0-0---0--0-0-0--0-0-0----|--8-7-5-7-5-3-0------------------------------|
G|--8-0-0-0---8-0-0-0---0--0-0-0--0-0-0----|--8-7-5-7-5-3-0------------------------------|
C|--8-0-0-0---8-0-0-0---0--0-0-0--0-0-0----|--8-7-5-7-5-3-0------------------------------|
PM                      .  . . .  . . .

Verse

Both Guitars

D|-----------------------------------------|-----------------------------------------------------|
A|-----------------------------------------|-----------------------------------------------------|
F|-----------------------------------------|-----------------------------------------------------|
C|-----------------------------------------|--------------------------------------------Times-2--|(all)
G|----------8-7---------10-7---------12-7--|--2h3p2h3p2h3p2-3h5p3h5p3h5p3------------------------|
C|--0-0-0-0-----0-0-0-0------0-0-0-0-------|-----------------------------------------------------|
PM  . . . .     . . . .      . . . .


Guitar 1

D|-----------------------------------------|-------------------------------------------|
A|-----------------------------------------|-------------------------------------------|
F|-----------------------------------------|-------------------------------------------|
C|--0-0-0-0-10/9-0-0-0-0-12/9-0-0-0-0-5/7--|-------------------------------------------|
G|--0-0-0-0-8-/7-0-0-0-0-10/7-0-0-0-0-3/5--|--2h3p2h3p2h3p2-3h5p3h5p3h5p3--------------|
C|--0-0-0-0------0-0-0-0------0-0-0-0------|-------------------------------------------|
PM  . . . .     . . . .      . . . .


Guitar 2

D|-----------------------------------------|-------------------------------------------|
A|-----------------------------------------|-------------------------------------------|
F|-----------------------------------------|-------------------------------------------|
C|--0-0-0-0-----0-0-0-0------0-0-0-0-------|-------------------------------------------|
G|--0-0-0-0-----0-0-0-0------0-0-0-0-------|--2h3p2h3p2h3p2-3h5p3h5p3h5p3--------------|
C|--0-0-0-0-----0-0-0-0------0-0-0-0-------|-------------------------------------------|
PM  . . . .     . . . .      . . . .

Pre-Chorus

Guitar 1

D|-----------------------------------------|-------------------------------------------|
A|-----------------------------------------|-------------------------------------------|
F|-----------------------------------------|-------------------------------------------|
C|--3-------3------------------------------|--2-------2--------------------------------|
G|----5-5-5---5-5-5--0--0-0-0--0-0-0-------|----3-3-3---3-3-3--0-0-0-0-0---------------|
C|-----------------------------------------|-------------------------------------------|
PM                   .  . . .  . . .                           . . . . .


D|-----------------------------------------|-------------------------------------------|
A|-----------------------------------------|-------------------------------------------|
F|-----------------------------------------|-------------------------------------------|
C|--3-------3------------------------------|--8-8-8-8----------------------------------|
G|----5-5-5---5-5-5--0--0-0-0--0-0-0-------|--8-8-8-8----------------------------------|
C|-----------------------------------------|--8-8-8-8----------------------------------|
PM                   .  . . .  . . .


Guitar 2
[ Tab from: http://www.guitartabs.cc/tabs/b/bullet_for_my_valentine/room_409_tab.html ]
D|-----------------------------------------|-------------------------------------------|
A|-----------------------------------------|-------------------------------------------|
F|-----------------------------------------|-------------------------------------------|
C|-----------------------------------------|-------------------------------------------|
G|-----------------------------------------|-------------------------------------------|
C|--8-0-0-0-8-0-0-0--0--0-0-0-0-0-0--------|--5-0-0-0-5-0-0-0--0-0-0-0-0---------------|
PM  . . . . . . . .  .  . . . . . .           . . . . . . . .  . . . . .


D|-----------------------------------------|-------------------------------------------|
A|-----------------------------------------|-------------------------------------------|
F|-----------------------------------------|-------------------------------------------|
C|-----------------------------------------|--8-8-8-8----------------------------------|
G|-----------------------------------------|--8-8-8-8----------------------------------|
C|--8-0-0-0-8-0-0-0--0--0-0-0-0-0-0--------|--8-8-8-8----------------------------------|
PM  . . . . . . . .  .  . . . . . .

Chorus

Both Guitars

D|-----------------------------------------|-------------------------------------------|
A|-----------------------------------------|-------------------------------------------|
F|-----------------------------------------|-------------------------------------------|
C|--8-0-0-0---8-0-0-0---0--0-0-0--0-0-0----|--5-0-0-0---5-0-0-0--0-0-0-0-0-------------|
G|--8-0-0-0---8-0-0-0---0--0-0-0--0-0-0----|--5-0-0-0---5-0-0-0--0-0-0-0-0-------------|
C|--8-0-0-0---8-0-0-0---0--0-0-0--0-0-0----|--5-0-0-0---5-0-0-0--0-0-0-0-0-------------|
PM                      .  . . .  . . .                          . . . . .


D|-----------------------------------------|-------------------------------------------|
A|-----------------------------------------|-------------------------------------------|
F|-----------------------------------------|-------------------------------------------|
C|--8-0-0-0---8-0-0-0---0--0-0-0--0-0-0----|-------------------------------------------|
G|--8-0-0-0---8-0-0-0---0--0-0-0--0-0-0----|-------------------------------------------|
C|--8-0-0-0---8-0-0-0---0--0-0-0--0-0-0----|--8-7-5-7-5-3--(Rapid-alternate-picking)---|
PM                      .  . . .  . . .


D|-----------------------------------------|-------------------------------------------|
A|-----------------------------------------|-------------------------------------------|
F|-----------------------------------------|-------------------------------------------|
C|--8-0-0-0---8-0-0-0---0--0-0-0--0-0-0----|--5-0-0-0---5-0-0-0--0-0-0-0-0-------------|
G|--8-0-0-0---8-0-0-0---0--0-0-0--0-0-0----|--5-0-0-0---5-0-0-0--0-0-0-0-0-------------|
C|--8-0-0-0---8-0-0-0---0--0-0-0--0-0-0----|--5-0-0-0---5-0-0-0--0-0-0-0-0-------------|
PM                      .  . . .  . . .                          . . . . .


D|-----------------------------------------|-------------------------------------------|
A|-----------------------------------------|-------------------------------------------|
F|-----------------------------------------|-------------------------------------------|
C|--8-0-0-0---8-0-0-0---0--0-0-0--0-0-0----|--8-7-5-7-5-3-0----------------------------|
G|--8-0-0-0---8-0-0-0---0--0-0-0--0-0-0----|--8-7-5-7-5-3-0----------------------------|
C|--8-0-0-0---8-0-0-0---0--0-0-0--0-0-0----|--8-7-5-7-5-3-0----------------------------|
PM                      .  . . .  . . .

Solo (Guitar 1 Keeps Rhythm)

Guitar 1

D|-----------------------------------------|-----------------------------------------------------|
A|-----------------------------------------|-----------------------------------------------------|
F|-----------------------------------------|-----------------------------------------------------|
C|-----------------------------------------|--------------------------------------------Times-2--|
G|----------8-7---------10-7---------12-7--|--2h3p2h3p2h3p2-3h5p3h5p3h5p3------------------------|
C|--0-0-0-0-----0-0-0-0------0-0-0-0-------|-----------------------------------------------------|
PM  . . . .     . . . .      . . . .


Guitar 2

D|--------21/0--------------------------------------------------12-14-15-12-14-15-17---|
A|--12(PH)--------------------------------------12-14-15-12-14-15-17-------------------|
F|-----------------------12-14-15-12-14-15-17------------------------------------------|
C|------------12-14-15-14--------------------------------------------------------------|
G|-------------------------------------------------------------------------------------|
C|-------------------------------------------------------------------------------------|
PM

                                            Very fast alternate picking
D|--15-17-19-------------------------------|--12-11-14-12-12-11-9-11-------------------|
A|-----------------------------------------|-------------------------------------------|
F|-----------------------------------------|-------------------------------------------|
C|-----------------------------------------|-------------------------------------------|
G|-----------------------------------------|-------------------------------------------|
C|-----------------------------------------|-------------------------------------------|
PM


Breakdown

Both Guitars

D|-----------------------------------------|-------------------------------------------|
A|-----------------------------------------|-------------------------------------------|
F|-----------------------------------------|-------------------------------------------|
C|--0-0-3-2-5-3-7-3-5-3-0-2-3-5------------|--0-0-3p0-2p0-5p0-3p0-7p0-3h5-3-0-2-3-5----|
G|--0-0-----------------0-2-3-5------------|--0-0---------------------------0-2-3-5----|
C|--0-0-----------------0-2-3-5------------|--0-0---------------------------0-2-3-5----|
PM    .           . . .                         .


Guitar 1

D|-----------------------------------------|-------------------------------------------|
A|-----------------------------------------|-------------------------------------------|
F|-----------------------------------------|----10-9-----------------------------------|
C|--8-0-8-0-----8-0------------------------|--7----------------------------------------|
G|--8-0-8-0-----8-0------------------------|-------------------------------------------|
C|--8-0-8-0-----8-0------------------------|-------------------------------------------|
PM

D|-----------------------------------------|-------------------------------------------|
A|-----------------------------------------|----10-12----------------------------------|
F|-----------------------------------------|--9----------------------------------------|
C|--8-0-8-0-----8-0------------------------|-------------------------------------------|
G|--8-0-8-0-----8-0------------------------|-------------------------------------------|
C|--8-0-8-0-----8-0------------------------|-------------------------------------------|
PM

D|-----------------------------------------|-------------------------------------------|
A|-----------------------------------------|-------------------------------------------|
F|-----------------------------------------|----10-12(PH)------------------------------|
C|--8-0-8-0-----8-0--0-0-0-0---------------|--8----------------------------------------|
G|--8-0-8-0-----8-0--0-0-0-0---------------|-------------------------------------------|
C|--8-0-8-0-----8-0--0-0-0-0---------------|-------------------------------------------|
PM                   . . . .

D|-----------------------------------------|-------------------------------------------|
A|-----------------------------------------|-------------------------------------------|
F|-----------------------------------------|-----13-11---------------------------------|
C|--8-0-8-0-----8-0--0-0-0-0---------------|--11---------------------------------------|
G|--8-0-8-0-----8-0--0-0-0-0---------------|-------------------------------------------|
C|--8-0-8-0-----8-0--0-0-0-0---------------|-------------------------------------------|
PM                   . . . .


Guitar 2

D|-----------------------------------------|-------------------------------------------|
A|-----------------------------------------|-------------------------------------------|
F|-----------------------------------------|----10-9-----------------------------------|
C|--1-0-1-0-----1-0------------------------|--7----------------------------------------|
G|--1-0-1-0-----1-0------------------------|-------------------------------------------|
C|--1-0-1-0-----1-0------------------------|-------------------------------------------|
PM

D|-----------------------------------------|-------------------------------------------|
A|-----------------------------------------|----12-10----------------------------------|
F|-----------------------------------------|--9----------------------------------------|
C|--1-0-1-0-----1-0------------------------|-------------------------------------------|
G|--1-0-1-0-----1-0------------------------|-------------------------------------------|
C|--1-0-1-0-----1-0------------------------|-------------------------------------------|
PM

D|-----------------------------------------|-------------------------------------------|
A|-----------------------------------------|-------------------------------------------|
F|-----------------------------------------|----10-12(PH)------------------------------|
C|--1-0-1-0-----1-0--0-0-0-0---------------|--8----------------------------------------|
G|--1-0-1-0-----1-0--0-0-0-0---------------|-------------------------------------------|
C|--1-0-1-0-----1-0--0-0-0-0---------------|-------------------------------------------|
PM                   . . . .

D|-----------------------------------------|-------------------------------------------|
A|-----------------------------------------|-------------------------------------------|
F|-----------------------------------------|-----13-11---------------------------------|
C|--1-0-1-0-----1-0--0-0-0-0---------------|--11---------------------------------------|
G|--1-0-1-0-----1-0--0-0-0-0---------------|-------------------------------------------|
C|--1-0-1-0-----1-0--0-0-0-0---------------|-------------------------------------------|
PM                   . . . .


Guitar 1

D|-----------------------------------------|-------------------------------------------|
A|-----------------------------------------|-------------------------------------------|
F|-----------------------------------------|-------------------------------------------|
C|--3-------3------------------------------|--2-------2--------------------------------|
G|----5-5-5---5-5-5--0--0-0-0--0-0-0-------|----3-3-3---3-3-3--0-0-0-0-0---------------|
C|-----------------------------------------|-------------------------------------------|
PM                   .  . . .  . . .                           . . . . .


D|-----------------------------------------|-------------------------------------------|
A|-----------------------------------------|-------------------------------------------|
F|-----------------------------------------|-------------------------------------------|
C|--3-------3------------------------------|--7-8-7-8--7-8-7-8--8-7--------------------|
G|----5-5-5---5-5-5--0--0-0-0--0-0-0-------|------------------------8-7----------------|
C|-----------------------------------------|-------------------------------------------|
PM                   .  . . .  . . .


Guitar 2

D|-----------------------------------------|-------------------------------------------|
A|-----------------------------------------|-------------------------------------------|
F|-----------------------------------------|-------------------------------------------|
C|-----------------------------------------|-------------------------------------------|
G|-----------------------------------------|-------------------------------------------|
C|--8-0-0-0-8-0-0-0--0--0-0-0-0-0-0--------|--5-0-0-0-5-0-0-0--0-0-0-0-0---------------|
PM  . . . . . . . .  .  . . . . . .           . . . . . . . .  . . . . .


D|-----------------------------------------|-------------------------------------------|
A|-----------------------------------------|-------------------------------------------|
F|-----------------------------------------|-------------------------------------------|
C|-----------------------------------------|--7-8-7-8--7-8-7-8--8-7--------------------|
G|-----------------------------------------|------------------------8-7----------------|
C|--8-0-0-0-8-0-0-0--0--0-0-0-0-0-0--------|-------------------------------------------|
PM  . . . . . . . .  .  . . . . . .


Both Guitars

D|-----------------------------------------|-------------------------------------------|
A|-----------------------------------------|-------------------------------------------|
F|-----------------------------------------|-------------------------------------------|
C|--8-0-0-0---8-0-0-0---0--0-0-0--0-0-0----|--5-0-0-0---5-0-0-0--0-0-0-0-0-------------|
G|--8-0-0-0---8-0-0-0---0--0-0-0--0-0-0----|--5-0-0-0---5-0-0-0--0-0-0-0-0-------------|
C|--8-0-0-0---8-0-0-0---0--0-0-0--0-0-0----|--5-0-0-0---5-0-0-0--0-0-0-0-0-------------|
PM                      .  . . .  . . .                          . . . . .


D|-----------------------------------------|-------------------------------------------|
A|-----------------------------------------|-------------------------------------------|
F|-----------------------------------------|-------------------------------------------|
C|--8-0-0-0---8-0-0-0---0--0-0-0--0-0-0----|-------------------------------------------|
G|--8-0-0-0---8-0-0-0---0--0-0-0--0-0-0----|-------------------------------------------|
C|--8-0-0-0---8-0-0-0---0--0-0-0--0-0-0----|--8-7-5-7-5-3--(Rapid-alternate-picking)---|
PM                      .  . . .  . . .


D|-----------------------------------------|-------------------------------------------|
A|-----------------------------------------|-------------------------------------------|
F|-----------------------------------------|-------------------------------------------|
C|--8-0-0-0---8-0-0-0---0--0-0-0--0-0-0----|--5-0-0-0---5-0-0-0--0-0-0-0-0-------------|
G|--8-0-0-0---8-0-0-0---0--0-0-0--0-0-0----|--5-0-0-0---5-0-0-0--0-0-0-0-0-------------|
C|--8-0-0-0---8-0-0-0---0--0-0-0--0-0-0----|--5-0-0-0---5-0-0-0--0-0-0-0-0-------------|
PM                      .  . . .  . . .                          . . . . .


D|-----------------------------------------|-------------------------------------------|
A|-----------------------------------------|-------------------------------------------|
F|-----------------------------------------|-------------------------------------------|
C|--8-0-0-0---8-0-0-0---0--0-0-0--0-0-0----|-------------------------------------------|
G|--8-0-0-0---8-0-0-0---0--0-0-0--0-0-0----|--(Rapid-alternate-picking)----------------|
C|--8-0-0-0---8-0-0-0---0--0-0-0--0-0-0----|--8-7-5-7-5-3--10-9-7-9-7-5----------------|
PM                      .  . . .  . . .


Both Guitars

D|-----------------------------------------|-------------------------------------------|
A|-----------------------------------------|-------------------------------------------|
F|-----------------------------------------|-------------------------------------------|
C|-----------------------------------------|-------------------------------0-----------|
G|----------8-7---------10-7---------12-7--|--2h3p2h3p2h3p2-3h5p3h5p3h5p3--0-----------|
C|--0-0-0-0-----0-0-0-0------0-0-0-0-------|-------------------------------0-----------|
PM  . . . .     . . . .      . . . .
Comments