Bullet For My Valentine - Hit The Floor Chords & Tabs

 

Hit The Floor Chords & Tabs

Bullet For My Valentine Chords & Tabs

Version: 1 Type: Tab 0 ratings
1 star 2 stars 3 stars 4 stars 5 stars
comments

Hit The Floor Tab

Intro
=====
-----------------------------------|
-----------------------------------|
-----------------------------------|
-----4------4------4------4------4-|
-----------------------------------|
-2-2----2-2----2-2----2-2----2-2---|
 x x    x x    x x    x x    x x

-------------------------------------|
-------------------------------------|
-------------------------------------|
-----5------5------5------5------5/7-|
-------------------------------------|
-2-2----2-2----2-2----2-2----2-2-----|
 x x    x x    x x    x x    x x

-----------------------------------|
-----------------------------------|
-----------------------------------|
-----4------4------4------4------4-|
-----------------------------------|
-2-2----2-2----2-2----2-2----2-2---|
 x x    x x    x x    x x    x x

-------------------------------|
-------------------------------|
-------------------------------|
-----5------5----5---2-5-2-5-2-|
---------------------2-5-2-5-2-|
-2-2----2-2----2-----2-5-2-5-2-|
 x x    x x    x

Intro 2
=======
--------------------------------------------------------------|
--------------------------------------------------------------|
--------------------------------------------------------------|
-222-222-222---------222-222-222----------222-222-222---------|
-222-222-222---------222-222-222----------222-222-222---------|
-222-222-222-0000000-222-222-222-00000000-222-222-222-0000000-|

then

-----------------------|
-----------------------|
-----------------------|
-222-222-222-2-5-2-5-2-|
-222-222-222-2-5-2-5-2-|
-222-222-222-2-5-2-5-2-|

Intro Solo
==========
Guitar 1
-------------------------------------------|
-8-12-10-7--13-12-10h8p10-8-7-8-7-5-7-8-7--|
-------------------------------------------|
-------------------------------------------|
-------------------------------------------|
-------------------------------------------|

----------------------------------------------|
-8-12-10-13--13-12-10h8p10-8-7-8-7-5-7-8-7-8~-|
----------------------------------------------|
----------------------------------------------|
----------------------------------------------|
----------------------------------------------|

Guitar 2
-15-19-17-14--20-19-17h15p17-15-14-15-14-12-14-15-14-|
-----------------------------------------------------|
-----------------------------------------------------|
-----------------------------------------------------|
-----------------------------------------------------|
-----------------------------------------------------|

-15-19-17-20--20-19-17h15p17-15-14-15-14-12-14-15-14-15~-|
---------------------------------------------------------|
---------------------------------------------------------|
---------------------------------------------------------|
---------------------------------------------------------|
---------------------------------------------------------|
[ Tab from: http://www.guitartabs.cc/tabs/b/bullet_for_my_valentine/hit_the_floor_tab.html ]
Verse
=====
---------------------------------------------------------------|
---------------------------------------------------------------|
-12------------12------------12-12--11-------11-------11h12p11-| x3
---------------------------------------------------------------|
----1010101010----1010101010-----------99999----99999----------|
---------------------------------------------------------------|
    x x x x x     x x x x x            xxxxx    xxxxx

---------------------------------------------------------|
---------------------------------------------------------|
-12------------12------------12-12--12-------12-------12-|
---------------------------------------------------------|
----1010101010----1010101010-----------xxxxx----xxxxx----|
---------------------------------------------------------|
    x x x x x     x x x x x

Chorus x2
======
------------------------------------------|
------------------------------------------|
-----12121212-11-11--------12121212-14-11-|
-22------------------2-0-2----------------|
-22------------------2-0-2----------------|
-22------------------2-0-2----------------|

--------------------------------|
--------------------------------|
--------------------------------|
-----5------5----5---5----7---5-|
--------------------------------|
-2-2----2-2----2---2----2---2---|
 x x    x x    x   x    x   x

-------------------|
-------------------|
-------------------|
-----4------4----4-|
-------------------|
-2-2----2-2----2---|
 x x    x x    x

-------------------------|
-12-10------10-8---------|
-------12-9------11-7-9~-|
-------------------------|
-------------------------|
-------------------------|

Intro 2
Verse
Chorus

Bridge x3
======
------------------------|
-8--7--8--12--10--8--7~-|
------------------------|
------------------------|
------------------------|
------------------------|

--------------------------------------------------------------|
--------------------------------------------------------------|
-12-12-11----10--12-12-11----10---12-12-11----10--12-12-11----|
----------12--------------12---------------12--------------12-|
--------------------------------------------------------------|
--------------------------------------------------------------|

THEN

------------------------|
-8--7--8--12--10--8--7~-|
------------------------|
------------------------|
------------------------|
------------------------|

Intro

Chorus 2 x2
========
------------------------------------------|
------------------------------------------|
-----14141414-13-13--------14141414-16-13-|
-44------------------4-2-4----------------|
-44------------------4-2-4----------------|
-44------------------4-2-4----------------|

--------------------------------|
--------------------------------|
--------------------------------|
-----7------7----7---7----9---7-|
--------------------------------|
-4-4----4-4----4---4----4---4---|
 x x    x x    x   x    x   x

-------------------|
-------------------|
-------------------|
-----6------6----6-|
-------------------|
-4-4----4-4----4---|
 x x    x x    x

----------------------------|
-14-12-------12-10----------|
-------14-11-------13-9-11~-|
----------------------------|
----------------------------|
----------------------------|

Outro
=====
--------------------------|
--------------------------|
--------------------------| x4
-4-2-4-2-5-4--4-2-4-2-000-|
-4-2-4-2-5-4--4-2-4-2-000-|
-4-2-4-2-5-4--4-2-4-2-000-|

--------------------------|
--------------------------|
--------------------------| x4
-4-2-4--5-4-5--4-2-4--000-|
-4-2-4--5-4-5--4-2-4--000-|
-4-2-4--5-4-5--4-2-4--000-|
Comments