Bullet For My Valentine - Her Voice Resides Chords & Tabs

 

Her Voice Resides Chords & Tabs

Bullet For My Valentine Chords & Tabs

Version: 4 Type: Tab

Her Voice Resides Tab

alrite so heres the solo....im pretty sure its at least 99% correct
email me with any questions, and rate it if its good

thanks






not sure about this first part.....sounds right
|---------------------------------------------------|
|---------------------------------------------------|
|----------------7-9-10--9-10-12/14--12-10----------|
|---------7-8-10---------------------------12~------|
|--7-8-10-------------------------------------------|
|---------------------------------------------------|


|---------------------------------------------------|
|--10h11p10h11p10h11--8h10p8h10p8h10--6~------------|guitar 1
|--10h12p10h12p10h12--9h10p9h10p9h10--7~------------|guitar 2
|---------------------------------------------------|
|---------------------------------------------------|
|---------------------------------------------------|


|--10h13t17-10h13t17-10h13t17-10h13t17--------------|
|---------------------------------------------------|
|---------------------------------------------------|
|---------------------------------------------------|
|---------------------------------------------------|
|---------------------------------------------------|


|--8h12t15-8h12t15-8h12t15-8h12t15------------------|
|---------------------------------------------------|
|---------------------------------------------------|
|---------------------------------------------------|
|---------------------------------------------------|
|---------------------------------------------------|

[ Tab from: http://www.guitartabs.cc/tabs/b/bullet_for_my_valentine/her_voice_resides_tab_ver_4.html ]
|--6h10t13-6h10t13-6h10t13-6h10t13----------------------|
|----------------------------------10-10-8-8-11-11-8-8--|guitar 1
|----------------------------------10-10-9-9-12-12-9-9--|guitar 2
|-------------------------------------------------------|
|-------------------------------------------------------|
|-------------------------------------------------------|


|--------------------------------------------------------|
|----------/11-10----------------------------------------|
|--/10-9----------9--10-9-------10-9-----12/14--10-9-----|
|--------7----------------10-12------10--------------10--|
|--------------------------------------------------------|
|--------------------------------------------------------|


really fast
|--t17p13p10h13-t17p13p10h13-t17p13p10h13-t17p13p10h13---|
|--------------------------------------------------------|
|--------------------------------------------------------|
|--------------------------------------------------------|
|--------------------------------------------------------|
|--------------------------------------------------------|



|--t18p13p10h13-t18p13p10h13-t18p13p10h13-t18p13p10h13---|
|--------------------------------------------------------|
|--------------------------------------------------------|
|--------------------------------------------------------|
|--------------------------------------------------------|
|--------------------------------------------------------|


|--t20p13p10h13-t20p13p10h13-t20p13p10h13-t20p13p10h13---|
|--------------------------------------------------------|
|--------------------------------------------------------|
|--------------------------------------------------------|
|--------------------------------------------------------|
|--------------------------------------------------------|


|--------------------------|
|--10-10-8-8-11-11-8-8-----|guitar 1
|--10-10-9-9-12-12-9-9-----|guitar 2
|--------------------------|
|--------------------------|
|--------------------------|

BFMV rules!