Bullet For My Valentine - Her Voice Resides Chords & Tabs

 

Her Voice Resides Chords & Tabs

Bullet For My Valentine Chords & Tabs

Version: 1 Type: Tab 0 ratings
1 star 2 stars 3 stars 4 stars 5 stars
comments

Her Voice Resides Tab

   
Bullet For My Valentine
Her Voice Resides
The Poison
2005

Drop C


INTRO
--------------------------------------------------------------------------------------|
--------------------------------------------------------------------------------------|
--------------------------------------------------------------------------------------|
----------------------7-5-------------------------------------------------------------|
---0-0-0-0-0-0-0-0-0-------7-8--8-7-8--12-10-12---------------------------------------|
---0-0-0-0-0-0-0-0-0-----0------8-7-8--12-10-12---------------------------------------|
     * * * * * * * *     *
[ Tab from: http://www.guitartabs.cc/tabs/b/bullet_for_my_valentine/her_voice_resides_tab.html ]
--------------------------------------------------------------------------------------|
--------------------------------------------------------------------------------------|
--------------------------------------------------------------------------------------|
----------------------7-5-------------------------------------------------------------|
---0-0-0-0-0-0-0-0-0-------7-8--8-7-8--12-10-12---------------------------------------|
---0-0-0-0-0-0-0-0-0-----0------8-7-8--12-10-12---------------------------------------|
     * * * * * * * *     *

--------------------------------------------------------------------------------------|
--------------------------------------------------------------------------------------|
--------------------------------------------------------------------------------------|
----------------------7-5-------------------------------------------------------------|
---0-0-0-0-0-0-0-0-0-------7-8--8-7-8--12-10-12---------------------------------------|
---0-0-0-0-0-0-0-0-0-----0------8-7-8--12-10-12---------------------------------------|
     * * * * * * * *     *

--------------------------------------------------------------------------------------|
--------------------------------------------------------------------------------------|
--------------------------------------------------------------------------------------|
----------------------7-5-------------------------------------------------------------|
---0-0-0-0-0-0-0-0-0-------7-8--8---------10------------------------------------------|
---0-0-0-0-0-0-0-0-0-----0------8---------10------
Comments