Bullet For My Valentine - Hand Of Blood Chords & Tabs

 

Hand Of Blood Chords & Tabs

Bullet For My Valentine Chords & Tabs

Version: 8 Type: Tab

Hand Of Blood Tab

   
Intro(Main Phase):(Guitar 1)x1
E|------------------------------------------------------------------||
B|------------------------------------------------------------------||
G|-0-910-0-79-0-57-0-45-0-467--0-910-0-79-0-57-0-45-46-4h6p4h6p4h6p-||
D|------------------------------------------------------------------||
A|------------------------------------------------------------------||
E|------------------------------------------------------------------||

E|----------------------------------------------------------------||
B|----------------------------------------------------------------||
G|-0-910-0-79-0-57-0-45-0-467-0-910-0-79-0-57-0-45----------------||
D|----------------------------------------------------------------||
A|----------------------------------------------------------------||
E|----------------------------------------------------------------||


Intro:(Guitar 2)x1
E|----------------------------------------------------------------------------------||
B|----------------------------------------------------------------------------------||
G|----------------------------------------------------------------------------------||
D|-0-1415-0-1214-0-1012-0-910-091112--0-1415-0-1214-0-1012-0-910-9h10p9h10p9h10p----||
A|----------------------------------------------------------------------------------||
E|----------------------------------------------------------------------------------||


E|--------------------------------------------------------------------||
B|--------0-1214-0-1415-0-1517-0151718--------------------------------||
G|-0-1415------------------------------0-1415-01214-01012-0-910-------||
D|--------------------------------------------------------------------||
A|--------------------------------------------------------------------||
E|--------------------------------------------------------------------||

Verse #1:(Both Guitars)x2
E|--------------------------------||
B|--------------------------------||
G|--------------------------------||
D|-2-3----222-23------------------||
A|-----35-222-23------------------||
E|--------222-23------------------||

Verse #2:(Both Guitars)x1
E|--------------------------------------||
B|--------------------------------------||
G|--------------------------------------||
D|----3---3---3---3--23--5--5--7-8-7----||
A|--------------------------------------||
E|-1-1-1-1-1-1-1-1-11--33-33-55-6-5-----||
   . . . . . . . . ..  .. .. .. . .

Verse #3:(Both Guitars)x1
E|------------------||
B|------------------||
G|------------------||
D|-3~-0~-7~---------||
A|-3~-0~-7~---------||
E|-3~-0~-7~---------||

Verse #4:(Both Guitars)x4
E|--------------------------------||
B|--------------------------------||
G|----77777777--------------------||
D|-000---------000--333-555-------||
A|-000---------000--333-555-------||
E|-000---------000--333-555-------||
   ...         ...  

Main Phase:(Both Guitars)x1
E|------------------------------------------------------------------||
B|------------------------------------------------------------------||
G|-0-910-0-79-0-57-0-45-0-467--0-910-0-79-0-57-0-45-46-4h6p4h6p4h6p-||
D|------------------------------------------------------------------||
A|------------------------------------------------------------------||
E|------------------------------------------------------------------||

E|-----------------------------------------------------------------||
B|-----------------------------------------------------------------||
G|-0-910-0-79-0-57-0-45-0-467-0-910-0-79-0-57-0-45-----------------||
D|-----------------------------------------------------------------||
A|--------------------------------------------------XXXX-----------||
E|--------------------------------------------------XXXX(picscrape)||

Chorus:(Both Guitars)x2
E|-------------------||
B|-------------------||
G|-------------------||
D|-33-00-77-0--------||
A|-33-00-77-0--------||
E|-33-00-77-0-00-00--||
              .. ..
Chorus #2:(Both Guitars)x1
E|--------------------------------------||
B|--------------------------------------||
G|--------------------------------------||
D|----3---3---3---3--23--5--5--7-8-7----||
A|--------------------------------------||
E|-1-1-1-1-1-1-1-1-11--33-33-55-6-5-----||
   . . . . . . . . ..  .. .. .. . .

Chorus:(Both Guitars)x2
E|-------------------||
B|-------------------||
G|-------------------||
D|-33-00-77-0--------||
A|-33-00-77-0--------||
E|-33-00-77-0-00-00--||
              .. ..
Chorus #2:(Both Guitars)x1
E|--------------------------------------||
B|--------------------------------------||
G|--------------------------------------||
D|----3---3---3---3--23--5--5--7-8-7----||
A|--------------------------------------||
E|-1-1-1-1-1-1-1-1-11--33-33-55-6-5-----||
   . . . . . . . . ..  .. .. .. . .

Verse #4:(Both Guitars)x4
E|--------------------------------||
B|--------------------------------||
G|----77777777--------------------||
D|-000---------000--333-555-------||
A|-000---------000--333-555-------||
E|-000---------000--333-555-------||
   ...         ... 
[ Tab from: http://www.guitartabs.cc/tabs/b/bullet_for_my_valentine/hand_of_blood_tab_ver_8.html ]
 Main Phase:(Both Guitars)x1
E|------------------------------------------------------------------||
B|------------------------------------------------------------------||
G|-0-910-0-79-0-57-0-45-0-467--0-910-0-79-0-57-0-45-46-4h6p4h6p4h6p-||
D|------------------------------------------------------------------||
A|------------------------------------------------------------------||
E|------------------------------------------------------------------||

E|-----------------------------------------------------------------||
B|-----------------------------------------------------------------||
G|-0-910-0-79-0-57-0-45-0-467-0-910-0-79-0-57-0-45-----------------||
D|-----------------------------------------------------------------||
A|--------------------------------------------------XXXX-----------||
E|--------------------------------------------------XXXX(picscrape)||

Chorus:(Both Guitars)x2
E|-------------------||
B|-------------------||
G|-------------------||
D|-33-00-77-0--------||
A|-33-00-77-0--------||
E|-33-00-77-0-00-00--||
              .. ..
Chorus #2:(Both Guitars)x1
E|--------------------------------------||
B|--------------------------------------||
G|--------------------------------------||
D|----3---3---3---3--23--5--5--7-8-7----||
A|--------------------------------------||
E|-1-1-1-1-1-1-1-1-11--33-33-55-6-5-----||
   . . . . . . . . ..  .. .. .. . .

Chorus:(Both Guitars)x2
E|-------------------||
B|-------------------||
G|-------------------||
D|-33-00-77-0--------||
A|-33-00-77-0--------||
E|-33-00-77-0-00-00--||
              .. ..
Chorus #2:(Both Guitars)x1
E|--------------------------------------||
B|--------------------------------------||
G|--------------------------------------||
D|----3---3---3---3--23--5--5--7-8-7----||
A|--------------------------------------||
E|-1-1-1-1-1-1-1-1-11--33-33-55-6-5-----||
   . . . . . . . . ..  .. .. .. . .

Rythem To back Up Solo:(Guitar 1)x4
E|------||
B|------||
G|------||
D|-11-0-||
A|-11-0-||
E|-11-0-||
   .. .
Guitar Solo #1:(Guitar 2)x1
E|------------------------------------------------------------||
B|------------------181715181715-15-18B-----------------------||
G|-7B~-10B~-9B~-----------------------------------------------||
D|--------------10B~--------------------2-3-2-3-2\7-----------||
A|------------------------------------------------------------||
E|------------------------------------------------------------||

Guitar Solo #2:(Guitar 1)x3 Then Ender (\ENDER/)
E|---------------------------||-----975---------||
B|-----56-5658565------------||--56----86565----||
G|---------------------------||-----------------||
D|---00----------------------||00---------------||
A|---------------------------||-----------------||
E|---------------------------||-----------------||
     ..                        ..
Guitar Solo #3:(Guitar 2)x3 Then Ender(\Ender/)
E|----------------------------||------------||
B|----------------------------||------------||
G|----------------------------||----532-----||
D|---23-2325232---------------||--23---53232||
A|-00-------------------------||00----------||
E|----------------------------||------------||
   ..                           ..

Heavy Phase:(Guitar 2)x1
E|----------------------------------------------------------------||
B|--0-1415-01214-01415-01214-0911-079-----------------------------||
G|----------------------------------------------------------------||
D|----------------------------------------------------------------||
A|----------------------------------------------------------------||
E|----------------------------------------------------------------||

 Main Phase:(Both Guitars)x1
E|------------------------------------------------------------------||
B|------------------------------------------------------------------||
G|-0-910-0-79-0-57-0-45-0-467--0-910-0-79-0-57-0-45-46-4h6p4h6p4h6p-||
D|------------------------------------------------------------------||
A|------------------------------------------------------------------||
E|------------------------------------------------------------------||

E|-----------------------------------------------------------------||
B|-----------------------------------------------------------------||
G|-0-910-0-79-0-57-0-45-0-467-0-910-0-79-0-57-0-45-----------------||
D|-----------------------------------------------------------------||
A|--------------------------------------------------XXXX-----------||
E|--------------------------------------------------XXXX(picscrape)||

Chorus:(Both Guitars)x2
E|-------------------||
B|-------------------||
G|-------------------||
D|-33-00-77-0--------||
A|-33-00-77-0--------||
E|-33-00-77-0-00-00--||
              .. ..
Chorus #2:(Both Guitars)x1
E|--------------------------------------||
B|--------------------------------------||
G|--------------------------------------||
D|----3---3---3---3--23--5--5--7-8-7----||
A|--------------------------------------||
E|-1-1-1-1-1-1-1-1-11--33-33-55-6-5-----||
   . . . . . . . . ..  .. .. .. . .

Chorus:(Both Guitars)x2
E|-------------------||
B|-------------------||
G|-------------------||
D|-33-00-77-0--------||
A|-33-00-77-0--------||
E|-33-00-77-0-00-00--||
              .. ..
Chorus #2:(Both Guitars)x1
E|--------------------------------------||
B|--------------------------------------||
G|--------------------------------------||
D|----3---3---3---3--23--5--5--7-8-7----||
A|--------------------------------------||
E|-1-1-1-1-1-1-1-1-11--33-33-55-6-5-----||
   . . . . . . . . ..  .. .. .. . .

(END)

Ratee Please

BULLET FOR MY VALENTINE IS DE BEST BAND EVA!!

Legend
~=let ring
.=palm mute
B=Bend
X=picscrape
h=hammer on
p=pull of