Bullet For My Valentine - Hand Of Blood Chords & Tabs

 

Hand Of Blood Chords & Tabs

Bullet For My Valentine Chords & Tabs

Version: 7 Type: Tab

Hand Of Blood Tab

Hand Of Blood - Awesome song i love it..this is how i play it =)

Tuning - Drop C For Both Guitars!

Matt Tuck - Guitar 1
Michael Padget- Guitar 2

*=Palm Mute
h=Hamer on
p=Pull off
v=Vibrato
~=Let Ring
#=Rest
s=slide
b=bend full

Intro 1 (Guitar 1) x 2
----------------------------------------------------------------------------|
----------------------------------------------------------------------------|
----------------------------------------------------------------------------|
---0-7-8-0-5-7-0-3-5-0-2-3-2-5-2--0-7-8-0-5-7-0-3-5-2-3-2h5p2h5p2h5p2h5p2h5-|
----------------------------------------------------------------------------|
----------------------------------------------------------------------------|

Intro 1 (Guitar 2) x 1
--------------------------------------------------------------------------------------------------|
--------------------------------------------------------------------------------------------------|
--------------------------------------------------------------------------------------------------|
---0-14-15-0-12-14-0-10-12-0-8-10-7-10-7--0-14-15-0-12-14-0-10-12-0-8-10-7h10p7h10p7h10p7h10p7h10-|
--------------------------------------------------------------------------------------------------|
--------------------------------------------------------------------------------------------------|
Then
--------------------------------------------------------------------|
--------------------------------------------------------------------|
--------------------------------------------------------------------|
-0-14-15-0-12-14-15-17-18-17-15-17-15--0-12-14-0-10-12--0-8-10-7-10-|
--------------------------------------------------------------------|
--------------------------------------------------------------------|

Intro 2 (Guitar 1)
--------------------------------------|
--------------------------------------|
--------------------------------------|
---------0-7-8-0-5-7-2--2--2-2-3-2-3--|
---------0-7-8-0-5-7-2--2--2-2-3-2-3--|
---------0-7-8-0-5-7-2--2--2-2-3-2-3--|
         * * * * * * *  *  * * * * *
Intro 2 (Guitar 2)
-------------------------------------------|
-------------------------------------------|
-------------------------------------------|
---------0-14-15-0-12-14-0-2--2--2-2-3-2-3-|
---------0-14-15-0-12-14-0-2--2--2-2-3-2-3-|
---------0-14-15-0-12-14-0-2--2--2-2-3-2-3-|
         * * * * * * * * * *  *  * * * * *
Guitar 1
----------------------------------------------------------------|
----------------------------------------------------------------|
----------------------------------------------------------------|
--------3-----3-----3-----3-----3------5-----5-----5-----7-8-7--|v
----------------------------------------------------------------|
----0-1---0-1---0-1---0-1---0-1----0-3---0-3---0-3---0-5--------|
    * *   * *   * *   * *   * *    * *   * *   * *   * *
Guitar 2

------------------------------------------------------------------------------|
------------------------------------------------------------------------------|
------------------------------------------------------------------------------|
--------10-----10-----10-----10-----10------12------12------12------14-15-14v-|
------------------------------------------------------------------------------|
----0-8----0-8----0-8----0-8----0-8----0-10----0-10----0-10----0-12-----------|
    * *    * *    * *    * *    * *    * *     * *     * *     * *
Guitar 1 and 2
----------------------------|
----------------------------|
----------------------------|
----0~~~~~~3~~~~~~7~~~~~~---|
----0~~~~~~3~~~~~~7~~~~~~---|
----0~~~~~~3~~~~~~7~~~~~~---|

Guitar 1 x 2
----------------------------------------------------------|
----------------------------------------------------------|
-------------------7t-------------------------------------|
----------------------------------------------------------|
--0---0---0-0-0-0-------0---0---0-0-0-0--3~-3-3-7---7-7-7-|
--0---0---0-0-0-0-------0---0---0-0-0-0--3~-3-3-7---7-7-7-|
  *   *   * * * *       *   *   * * * *
Guitar 2 x 2
----------------------------------------------------------|
----------------------------------------------------------|
-------------------10t------------------------------------|
----------------------------------------------------------|
--0---0---0-0-0-0-------0---0---0-0-0-0--3~-3-3-7---7-7-7-|
--0---0---0-0-0-0-------0---0---0-0-0-0--3~-3-3-7---7-7-7-|
  *   *   * * * *       *   *   * * * *
Guitar 1
---------------------------------------------------------|
---------------------------------------------------------|
---------------------------------------------------------|
---0-7-8-0-5-7-0-3-5-0-2-3-2-5-2--0-7-8-0-5-7-0-3-5-2-3--|Rest while drum beat
---------------------------------------------------------|
---------------------------------------------------------|

----------------------------------------------------------------------------|
----------------------------------------------------------------------------|
----------------------------------------------------------------------------|
---0-7-8-0-5-7-0-3-5-0-2-3-2-5-2--0-7-8-0-5-7-0-3-5-2-3-2h5p2h5p2h5p2h5p2h5-|
----------------------------------------------------------------------------|
----------------------------------------------------------------------------|

---------------------------------------------------------------------------|
---------------------------------------------------------------------------|
---------------------------------------------------------------------------|
---0-7-8-0-5-7-0-3-5-0-2-3-2-5-2--0-7-8-0-5-7-0-3-5-2-3--------------------|
---------------------------------------------------------------------------|
---------------------------------------------------------------------------|

Guitar 2

------------------------------------------------------------------------------------|
------------------------------------------------------------------------------------|
------------------------------------------------------------------------------------|
---0-14-15-0-12-14-0-10-12-0-8-10-7-10-7--0-14-15-0-12-14-0-10-12-0-8-10-#Rest------|
------------------------------------------------------------------------------------|
------------------------------------------------------------------------------------|

---------------------------------------------------------------------------------------------------|
---------------------------------------------------------------------------------------------------|
---------------------------------------------------------------------------------------------------|
---0-14-15-0-12-14-0-10-12-0-8-10-7-10-7--0-14-15-0-12-14-0-10-12-0-8-10-7h10p7h10p7h10p7h10p7h10--|
---------------------------------------------------------------------------------------------------|
---------------------------------------------------------------------------------------------------|

------------------------------------------------------------------------------------|
------------------------------------------------------------------------------------|
------------------------------------------------------------------------------------|
---0-14-15-0-12-14-0-10-12-0-8-10-7-10-7--0-14-15-0-12-14-0-10-12-0-8-10-#Rest------|
------------------------------------------------------------------------------------|
------------------------------------------------------------------------------------|

Guitar 1 and 2 x 2

------------------------------|
------------------------------|
------------------------------|
---s3~~0~~7~~~----------------|
---s3~~0~~7~~~-0-0--0-0-0-0---|
---s3~~0~~7~~~-0-0--0-0-0-0---|
               * *  * * * *
Guitar 1
----------------------------------------------------------------|
----------------------------------------------------------------|
----------------------------------------------------------------|
--------3-----3-----3-----3-----3------5-----5-----5-----7-8-7--|v
----------------------------------------------------------------|
----0-1---0-1---0-1---0-1---0-1----0-3---0-3---0-3---0-5--------|
    * *   * *   * *   * *   * *    * *   * *   * *   * *

Guitar 2

------------------------------------------------------------------------------|
------------------------------------------------------------------------------|
------------------------------------------------------------------------------|
--------10-----10-----10-----10-----10------12------12------12------14-15-14v-|
------------------------------------------------------------------------------|
----0-8----0-8----0-8----0-8----0-8----0-10----0-10----0-10----0-12-----------|
    * *    * *    * *    * *    * *    * *     * *     *  *    *  *

Guitar 1 x 2
----------------------------------------------------------|
----------------------------------------------------------|
-------------------7t-------------------------------------|
----------------------------------------------------------|
--0---0---0-0-0-0-------0---0---0-0-0-0--3~-3-3-7---7-7-7-|
--0---0---0-0-0-0-------0---0---0-0-0-0--3~-3-3-7---7-7-7-|
  *   *   * * * *       *   *   * * * *
Guitar 2 x 2
----------------------------------------------------------|
----------------------------------------------------------|
-------------------10t------------------------------------|
----------------------------------------------------------|
--0---0---0-0-0-0-------0---0---0-0-0-0--3~-3-3-7---7-7-7-|
--0---0---0-0-0-0-------0---0---0-0-0-0--3~-3-3-7---7-7-7-|
  *   *   * * * *       *   *   * * * *
Guitar 1
---------------------------------------------------------|
---------------------------------------------------------|
---------------------------------------------------------|
---0-7-8-0-5-7-0-3-5-0-2-3-2-5-2--0-7-8-0-5-7-0-3-5-2-3--|Rest while drum beat
---------------------------------------------------------|
---------------------------------------------------------|

----------------------------------------------------------------------------|
----------------------------------------------------------------------------|
----------------------------------------------------------------------------|
---0-7-8-0-5-7-0-3-5-0-2-3-2-5-2--0-7-8-0-5-7-0-3-5-2-3-2h5p2h5p2h5p2h5p2h5-|
----------------------------------------------------------------------------|
----------------------------------------------------------------------------|

---------------------------------------------------------------------------|
---------------------------------------------------------------------------|
---------------------------------------------------------------------------|
---0-7-8-0-5-7-0-3-5-0-2-3-2-5-2--0-7-8-0-5-7-0-3-5-2-3--------------------|
---------------------------------------------------------------------------|
---------------------------------------------------------------------------|

Guitar 2
[ Tab from: http://www.guitartabs.cc/tabs/b/bullet_for_my_valentine/hand_of_blood_tab_ver_7.html ]
------------------------------------------------------------------------------------|
------------------------------------------------------------------------------------|
------------------------------------------------------------------------------------|
---0-14-15-0-12-14-0-10-12-0-8-10-7-10-7--0-14-15-0-12-14-0-10-12-0-8-10-#Rest------|
------------------------------------------------------------------------------------|
------------------------------------------------------------------------------------|

---------------------------------------------------------------------------------------------------|
---------------------------------------------------------------------------------------------------|
---------------------------------------------------------------------------------------------------|
---0-14-15-0-12-14-0-10-12-0-8-10-7-10-7--0-14-15-0-12-14-0-10-12-0-8-10-7h10p7h10p7h10p7h10p7h10--|
---------------------------------------------------------------------------------------------------|
---------------------------------------------------------------------------------------------------|

------------------------------------------------------------------------------------|
------------------------------------------------------------------------------------|
------------------------------------------------------------------------------------|
---0-14-15-0-12-14-0-10-12-0-8-10-7-10-7--0-14-15-0-12-14-0-10-12-0-8-10-#Rest------|
------------------------------------------------------------------------------------|
------------------------------------------------------------------------------------|

Guitar 1 and 2 x 2

------------------------------|
------------------------------|
------------------------------|
---s3~~0~~7~~~----------------|
---s3~~0~~7~~~-0-0--0-0-0-0---|
---s3~~0~~7~~~-0-0--0-0-0-0---|
               * *  * * * *
Guitar 1
----------------------------------------------------------------|
----------------------------------------------------------------|
----------------------------------------------------------------|
--------3-----3-----3-----3-----3------5-----5-----5-----7-8-7--|v
----------------------------------------------------------------|
----0-1---0-1---0-1---0-1---0-1----0-3---0-3---0-3---0-5--------|
    * *   * *   * *   * *   * *    * *   * *   * *   * *

Guitar 2

------------------------------------------------------------------------------|
------------------------------------------------------------------------------|
------------------------------------------------------------------------------|
--------10-----10-----10-----10-----10------12------12------12------14-15-14v-|
------------------------------------------------------------------------------|
----0-8----0-8----0-8----0-8----0-8----0-10----0-10----0-10----0-12-----------|
    * *    * *    * *    * *    * *    *  *    * *     * *     *  *
Guitar 1 (Solo)
--------------------------------------17p13---13h17p13h17p13---13h17p13h17p13------------|
-------------------------------------------15---------------15-----------------18b~~~~~~-|
-----------------s7~~~~--14--12--9v--------------------------------------------20b~~~~~~-|
-------------------------15--14--10v-----------------------------------------------------|
--0-0--0-0-0-0---------------------------------------------------------------------------|
--0-0--0-0-0-0---------------------------------------------------------------------------|
  * *  * * * *
------------------------------------------------------------------------|
------------------------------------------------------------------------|
--------------12------------12--14v---------9---10~~~~9-10-9-12-10-9-10-|
------12--15-----15--12--15-------------8-8---8-------------------------|
---15-------------------------------------------------------------------|
------------------------------------------------------------------------|

Guitar 1(Solo) x 3
----------------------------------|
----------------------------------|
-----9---10~~~~9-10-9-12-10-9-10--|
-8-8---8--------------------------|
----------------------------------|
----------------------------------|
 * *   *
-----------------------------------|
-----------------------------------|
------9---10~~~~9-10-9-12-10-9-10--|
--7-7---7--------------------------|
-----------------------------------|
-----------------------------------|
  * *   *
----------------------------------|
----------------------------------|
-----9---10~~~~9-10-9-12-10-9-10--|
-8-8---8--------------------------|
----------------------------------|
----------------------------------|
 * *   *
-----------------------------------|
-----------------------------------|
------9---10~~~~9-10-9-12-10-9-10--|
--7-7---7--------------------------|
-----------------------------------|
-----------------------------------|
  * *   *
----------------------------|
---13-11-10-----------------|
------------12-10-9---------|
---------------------12-10--|
----------------------------|
----------------------------|

Then Guitar 1 (solo) x2
------------------------|
------------------------|
--10-9-----12-9----10-9-|
--------10------10------|
------------------------|
------------------------|

------------------------|
------------------------|
-----12-9-----10-9-10-9-|
--10-------10-----------|
------------------------|
------------------------|

------------------------|
------------------------|
--10-9-----12-9----10-9-|
--------10------10------|
------------------------|
------------------------|

---------------------------|
-----13--10----------------|
-----------------10-9-10-9-|
--10----------10-----------|
---------------------------|
---------------------------|

Guitar 1(solo)
------------------------|
------------------------|
--10-9-----12-9----10-9-|
--------10------10------|
------------------------|
------------------------|

Guitar 2(Solo)

---------------------|
---------------------|
---------------------|
---------------------|
--0-0--0-0-0-0-------|
--0-0--0-0-0-0-------|
  * *  * * * *
---------------------------|
---------------------------|
---------------------------|
---------------------------|
--0-0--0-0-0-0-3~3-3-7-7-7-|
--0-0--0-0-0-0-3~3-3-7-7-7-|
  * *  * * * *
---------------------|
---------------------|
---------------------|
---------------------|
--0-0--0-0-0-0-------|
--0-0--0-0-0-0-------|
  * *  * * * *
--------------------------------------|
--------------------------------------|
--------------------------------------|
--------------------------------------|
--0-0--0-0-0-0-3~3-3-7-7-7--8-8-8-8-8-|
--0-0--0-0-0-0-3~3-3-7-7-7--8-8-8-8-8-|
  * *  * * * *              * * * * *
-------------------------------|
-------------------------------|
-------------------------------|
--12-12-12-12-12-----8-8-8-8-8-|
--12-12-12-12-12-----8-8-8-8-8-|
--12-12-12-12-12-----8-8-8-8-8-|
  *  *  *  *  *      * * * * *
------------------------------------|
------------------------------------|
------------------------------------|
--12-12-12-12-12-----0-0-0-0-0-0-0--|
--12-12-12-12-12-----0-0-0-0-0-0-0--|
--12-12-12-12-12-----0-0-0-0-0-0-0--|
  *  *   *  *  *     * * * * * * *
Guitar 2 (Solo)

--------------------------------|
--------------------------------|
--------------------------------|
--------------------------------|
-----7---8~~~----7-8-7-10-8-7-8-|
-8-8---8------------------------|
 * *   *
-----------------------------|
-----------------------------|
-----------------------------|
-----------------------------|
-----7--8~~~----7-8-10-8-7-8-|
-7-7--7----------------------|
 * *  *
--------------------------------|
--------------------------------|
--------------------------------|
--------------------------------|
-----7---8~~~----7-8-7-10-8-7-8-|
-8-8---8------------------------|
 * *   *
-----------------------------|
-----------------------------|
-----------------------------|
-----------------------------|
-----7--8~~~----7-8-10-8-7-8-|
-7-7--7----------------------|
 * *  *
----------------------|
----------------------|
----------------------|
-10-8-7---------------|
--------10-8-7--------|
---------------12-10--|

-------------------------8-6-5-6--|
----------------------------------|
-----5---7~~~~~~~-5-7-5-----------|
-8-8---8--------------------------|
----------------------------------|
----------------------------------|
 * *   *
-------------------------8-6-5-6--|
----------------------------------|
-----5---7~~~~~~~-5-7-5-----------|
-7-7---7--------------------------|
----------------------------------|
----------------------------------|
 * *   *
-------------------------8-6-5-6--|
----------------------------------|
-----5---7~~~~~~~-5-7-5-----------|
-8-8---8--------------------------|
----------------------------------|
----------------------------------|
 * *   *
-13-12-10----------------|
----------13-11-10-------|
-------------------12-10-|
-------------------------|
-------------------------|
-------------------------|

Guitar 2 (Solo) x 3
---------------------|
---------------------|
---------------------|
---------------------|
-0-0-0-0-0~~~~~~~~~~-|
-0-0-0-0-0~~~~~~~~~~-|

Guitar 1
------------------------|
------------------------|
------------------------|
-0-7-8-0-5-7-0-3-5-2-3--|
------------------------|
------------------------|

Guitar 2

------------------------------------|
------------------------------------|
------------------------------------|
--0-14-15-0-12-14-0-10-12-0-8-10-12-|
------------------------------------|
------------------------------------|

Guitar 1 and 2 x 2

------------------------------|
------------------------------|
------------------------------|
---s3~~0~~7~~~----------------|
---s3~~0~~7~~~-0-0--0-0-0-0---|
---s3~~0~~7~~~-0-0--0-0-0-0---|
               * *  * * * *
Guitar 1
----------------------------------------------------------------|
----------------------------------------------------------------|
----------------------------------------------------------------|
--------3-----3-----3-----3-----3------5-----5-----5-----7-8-7--|v
----------------------------------------------------------------|
----0-1---0-1---0-1---0-1---0-1----0-3---0-3---0-3---0-5--------|
    * *   * *   * *   * *   * *    * *   * *   * *   * *
Guitar 2

------------------------------------------------------------------------------|
------------------------------------------------------------------------------|
------------------------------------------------------------------------------|
--------10-----10-----10-----10-----10------12------12------12------14-15-14v-|
------------------------------------------------------------------------------|
----0-8----0-8----0-8----0-8----0-8----0-10----0-10----0-10----0-12-----------|
    * *    * *    * *    * *    * *    *  *    *  *    * *     *  *
Guitar 1 and 2

---------------------|
---------------------|
---------------------|
---------------------|
--0-0--0-0-0-0-------|
--0-0--0-0-0-0-------|
  * *  * * *

Enjoy =P