Bullet For My Valentine - Hand Of Blood Chords & Tabs

 

Hand Of Blood Chords & Tabs

Bullet For My Valentine Chords & Tabs

Version: 4 Type: Tab 0 ratings
1 star 2 stars 3 stars 4 stars 5 stars
comments

Hand Of Blood Tab

   
Tabbed by: Eli [eli173_@hotmail.com] (LetItBurn)
Date: 26th December

Band: Bullet For My Valentine
Song: Hand of Blood

Notes:
Drop C and Full Step Down (CGCDFAD)

Fixed up the tuning & fixed up some parts so its easier to read. This song is
pretty hard for newbies but fun to play when you got it down!

Guitar 2 under guitar 1 tab on this page:

--------------------------------------------------------------------------------|
-----------------------------------Guitar 1-------------------------------------|
--------------------------------------------------------------------------------|
Left Speaker - Guitar 1


[Intro]
Order of play for intro:
Main, Part 1
Main, Part 2
Main, Part 1
Main

 |           Main            |  Part 1 |      Part 2       |
D|---------------------------|---------|-------------------|
A|---------------------------|---------|-------------------|
F|----9-10---7-9---5-7---4-5-|---4-7-6-|-4h5p4h5p4h5p4h5p4-|
C|--7------7-----7-----7-----|-7-------|-------------------|
G|---------------------------|---------|-------------------|
C|---------------------------|---------|-------------------|

=

D|-----------------|
A|-----------------|
F|-----------------| x2
C|-2-2h3-----22320-|
G|-------3h5-22320-|
C|-----------22320-|
pm *

=

D|------------------------------------------------------------|
A|------------------------------------------------------------|
F|------------------------------------------------------------|
C|----3-----3-----3-----3-----3-----5-----5-----5---7---8---7-|
G|------------------------------------------------------------|
C|-1-1---1-1---1-1---1-1---1-1---3-3---3-3---3-3---5---6---5--|
pm * *   * *   * *   * *   * *   * *   * *   * *   *   *   *

=
[Verse]
D|--------------------------------|
A|--------------------------------|
F|--------------------------------|
C|--0~--------3~--------7~--------|
G|--0~--------3~--------7~--------|
C|--0~--------3~--------7~--------|

=

D|----------------------------------|
A|----------------------------------|
F|----------------------------------| x2
C|--0-0-000--------0-0-000--333-555-|
G|--0-0-000--------0-0-000--333-555-|
C|--0-0-000--------0-0-000--333-555-|
pm  * * ***        * * ***  *** ***
=

D|----------------------------------|
A|----------------------------------|
F|----------777777------------------| x2
C|--0-0-000--------0-0-000--333-555-|
G|--0-0-000--------0-0-000--333-555-|
C|--0-0-000--------0-0-000--333-555-|
    * * ***        * * ***  *** ***
=

[Pre-Chorus]
Order of play for Pre-Chorus:
Main, Part 1
Main, Nothing
Main, Part 2
Main, SLIDE

 |           Main            |  Part 1 |      Part 2       |
C|---------------------------|---------|-------------------|
F|---------------------------|---------|-------------------|
F|----9-10---7-9---5-7---4-5-|---4-7-6-|-4h5p4h5p4h5p4h5p4-|
C|--7------7-----7-----7-----|-7-------|-------------------|
F|---------------------------|---------|-------------------|
C|---------------------------|---------|-------------------|

-SLIDE!-

=

[Chorus]
D|-------------------------------------------|
A|-------------------------------------------|
F|-------------------------------------------|
C|--3~--0~--7~--0~--000--3~--0~--7---0---000-|
G|--3~--0~--7~--0~--000--3~--0~--7---0---000-|
C|--3~--0~--7~--0~--000--3~--0~--7---0---000-|
pm                  ***                  ***


D|------------------------------------------------------------|
A|------------------------------------------------------------|
F|------------------------------------------------------------|
C|----3-----3-----3-----3-----3-----5-----5-----5---7---8---7-|
G|------------------------------------------------------------|
C|-1-1---1-1---1-1---1-1---1-1---3-3---3-3---3-3---5---6---5--|
pm * *   * *   * *   * *   * *   * *   * *   * *   *   *   *

Repeat agian

Play:
[Verse]
[Pre-Chorus]
[Chorus]

=

[Solo]
D|------------------|------------[FAST]-----------|----------------|
A|------------------|-18-17-15-18-17-15-18-15-18b-|----------------|
F|--7b---10b--9b----|-----------------------------|----------------|
C|--------------10b-|-----------------------------|-2h3p2-----3/7b-|
G|------------------|-----------------------------|-------3-5------|
C|------------------|-----------------------------|----------------|

D|-------------------------------|   |-----------------------|
A|-------------------------------|   |-13-11-10--------------|
F|-----9-10b---9-10-9-12-10-9-10-|x4 |---------10-12-10-9-10-|
C|-00----------------------------|   |-----------------------|
G|-------------------------------|   |-----------------------|
C|-------------------------------|   |-----------------------|
pm **

D|---------------------------|   |-----------------|
A|---------------------------|   |-----------------|
F|---------------------------|x4 |-5-2-3-----------|    [X2]
C|-----2-3b----0-2-3-5-3-2-3-|   |-------3-5-3-2-3-|
G|-00------------------------|   |-----------------|
C|---------------------------|   |-----------------|
pm **

=

D|-------------------|
A|-------------------|
F|-------------------| x2
C|--8888-8~--0000-0~-|
G|--8888-8~--0000-0~-|
C|--8888-8~--0000-0~-|
pm  ****     ****

  [SCREAMING PART]
D|---------------------------------------|
A|---------------------------------------|
F|---------------------------------------|
C|-0-14-15-0-12-14-0-10-12-0-9-10-=STOP=-|
G|---------------------------------------|
C|---------------------------------------|

=

[Chorus]
D|-------------------------------------------|
A|-------------------------------------------|
F|-------------------------------------------|
C|--3~--0~--7~--0~--000--3~--0~--7---0---000-|
G|--3~--0~--7~--0~--000--3~--0~--7---0---000-|
C|--3~--0~--7~--0~--000--3~--0~--7---0---000-|
pm                  ***                  ***


D|------------------------------------------------------------|
A|------------------------------------------------------------|
F|------------------------------------------------------------|
C|----3-----3-----3-----3-----3-----5-----5-----5---7---8---7-|
G|------------------------------------------------------------|
C|-1-1---1-1---1-1---1-1---1-1---3-3---3-3---3-3---5---6---5--|
pm * *   * *   * *   * *   * *   * *   * *   * *   *   *   *

Repeat agian

=

D|------------|
A|------------|
F|------------|
C|--0-0-00000-|
G|--0-0-00000-|
C|--0-0-00000-|
pm  * * *****

[ Tab from: http://www.guitartabs.cc/tabs/b/bullet_for_my_valentine/hand_of_blood_tab_ver_4.html ]
--------------------------------------------------------------------------------|
-----------------------------------Guitar 2-------------------------------------|
--------------------------------------------------------------------------------|
Right Speaker - Guitar 2

[Intro]
Order of play for intro:
Main 1, Part 1
Main 1, Part 2
Part 3, Main 1


 |               Main              | Part 1  |         Part 2        |
D|---------------------------------|---------|-----------------------|
A|---------------------------------|---------|-----------------------|
F|---------------------------------|---------|-----------------------|
C|--0-14-15-0-12-14-0-10-12-0-9-10-|-0-7-9-7-|-9h10p9h10p9h10p9h10p9-|
G|---------------------------------|---------|-----------------------|
C|---------------------------------|---------|-----------------------|

                 Part 3
D|----------------------------------|
A|----------------------------------|
F|----------------------------14----|
C|--0-14-15-0-12-14-0-10-15-17---15-|
G|----------------------------------|
C|----------------------------------|

=

D|------------------|
A|------------------|
F|------------------| x2
C|-0-00-35-000-2320-|
G|-0-00-35-000-2320-|
C|-0-00-35-000-2320-|
pm   **

=

D|-----------------------------------------------------------------|
A|-----------------------------------------------------------------|
F|-----------------------------------------------------------------|
C|----10----10----10---10----10------12------12---12--14---15---14-|
G|-----------------------------------------------------------------|
C|-8-8---8-8---8-8---8-8--8-8---10-10---10-10---10---12--13---12---|
pm * *   * *   * *   * *  * *   ** **   ** **   **   **  **   **

=

[Verse]
D|--------------------------------|
A|--------------------------------|
F|--------------------------------|
C|--0~--------3~--------7~--------|
G|--0~--------3~--------7~--------|
C|--0~--------3~--------7~--------|

=

D|----------------------------------|
A|----------666666------------------|
F|----------------------------------| x2
C|--0-0-000--------0-0-000--333-555-|
G|--0-0-000--------0-0-000--333-555-|
C|--0-0-000--------0-0-000--333-555-|
pm  * * ***        * * ***  *** ***

=

D|----------------------------------|
A|----------666666------------------|
F|----------------------------------| x2
C|--0-0-000--------0-0-000--333-555-|
G|--0-0-000--------0-0-000--333-555-|
C|--0-0-000--------0-0-000--333-555-|
    * * ***        * * ***  *** ***
=

[Pre-Chorus]
Order of play for Pre-Chorus:
Main, Part 1
Main, Nothing
Main, Part 2
Main, SLIDE

 |               Main              | Part 1  |         Part 2        |
D|---------------------------------|---------|-----------------------|
A|---------------------------------|---------|-----------------------|
F|---------------------------------|---------|-----------------------|
C|--0-14-15-0-12-14-0-10-12-0-9-10-|-0-7-9-7-|-9h10p9h10p9h10p9h10p9-|
G|---------------------------------|---------|-----------------------|
C|---------------------------------|---------|-----------------------|

-Finger SLIDE!-

=

[Chorus]
D|-------------------------------------------|
A|-------------------------------------------|
F|-------------------------------------------|
C|--3~--0~--7~--0~--000--3~--0~--7---0---000-|
G|--3~--0~--7~--0~--000--3~--0~--7---0---000-|
C|--3~--0~--7~--0~--000--3~--0~--7---0---000-|
pm                  ***                  ***


D|-----------------------------------------------------------------|
A|-----------------------------------------------------------------|
F|-----------------------------------------------------------------|
C|----10----10----10---10----10------12------12---12--14---15---14-|
G|-----------------------------------------------------------------|
C|-8-8---8-8---8-8---8-8--8-8---10-10---10-10---10---12--13---12---|
pm * *   * *   * *   * *  * *   ** **   ** **   **   **  **   **

Repeat agian

=

Play:
[Verse]
[Pre-Chorus]
[Chorus]

=

[Solo]
D|------------------------------------|
A|------------------------------------|
F|------------------------------------|
C|--0-0-0000--------0-0-0000--333-555-| x2
G|--0-0-0000--------0-0-0000--333-555-|
C|--0-0-0000--------0-0-0000--333-555-|
pm  * * ****        * * ****

D|--------------------|
A|--------------------|
F|--------------------|
C|--88888888-00000000-| x2
G|--88888888-00000000-|
C|--88888888-00000000-|

D|-------------------------------|   |-----------------------|
A|-------------------------------|   |-13-11-10--------------|
F|-----9-10b---9-10-9-12-10-9-10-|x4 |---------10-12-10-9-10-|  [x2]
C|-00----------------------------|   |-----------------------|
G|-------------------------------|   |-----------------------|
C|-------------------------------|   |-----------------------|
pm **

=

D|--------------------------|
A|-6p5-8p5--6p5-6p5-6p5h6p5-|
F|--------------------------|
C|--------------------------|
G|--------------------------|
C|--------------------------|

D|--------------6p3---------|
A|-6p5-8p5--6p5-----6p5h6p5-|
F|--------------------------|
C|--------------------------|
G|--------------------------|
C|--------------------------|

D|--------------------------|
A|-6p5-8p5--6p5-6p5-6p5h6p5-|
F|--------------------------|
C|--------------------------|
G|--------------------------|
C|--------------------------|

D|-----6p3------------------|
A|-6p5------6p5-6p5-6p5h6p5-|
F|--------------------------|
C|--------------------------|
G|--------------------------|
C|--------------------------|

=

D|---------------|
A|---------------|
F|---------------|
C|--000000000000-| x2
G|--000000000000-|
C|--000000000000-|
pm  * * ****

=

[Chorus]
D|-------------------------------------------|
A|-------------------------------------------|
F|-------------------------------------------|
C|--3~--0~--7~--0~--000--3~--0~--7---0---000-|
G|--3~--0~--7~--0~--000--3~--0~--7---0---000-|
C|--3~--0~--7~--0~--000--3~--0~--7---0---000-|
pm                  ***                  ***


D|-----------------------------------------------------------------|
A|-----------------------------------------------------------------|
F|-----------------------------------------------------------------|
C|----10----10----10---10----10------12------12---12--14---15---14-|
G|-----------------------------------------------------------------|
C|-8-8---8-8---8-8---8-8--8-8---10-10---10-10---10---12--13---12---|
pm * *   * *   * *   * *  * *   ** **   ** **   **   **  **   **

Repeat agian

=

D|------------|
A|------------|
F|------------|
C|--0-0-00000-|
G|--0-0-00000-|
C|--0-0-00000-|
pm  * * *****

Eli, 16
Comments