Bullet For My Valentine - Hand Of Blood Chords & Tabs

 

Hand Of Blood Chords & Tabs

Bullet For My Valentine Chords & Tabs

Version: 1 Type: Tab 0 ratings
1 star 2 stars 3 stars 4 stars 5 stars
comments

Hand Of Blood Tab

Drop D (DADGBE)

Intro
Guitar 1
E|--------------------------------------------------------------|
B|--------------------------------------------------------------|
G|--0-7-8-0-5-7-0-3-5-0-2-3-0-2-5-4-----------------------------|
D|--------------------------------------------------------------|
A|--------------------------------------------------------------|
D|--------------------------------------------------------------|
								x2
E|--------------------------------------------------------------|
B|--------------------------------------------------------------|
G|--0-7-8-0-5-7-0-3-5-0-2-3-2h3p2h3p2h3p2h3p2-------------------|
D|--------------------------------------------------------------|
A|--------------------------------------------------------------|
D|--------------------------------------------------------------|

Intro
Guitar 2 (Same timing as Guitar 1)
E|--------------------------------------------------------------|
B|--------------------------------------------------------------|
G|--------------------------------------------------------------|
D|--0-14-15-0-12-14-0-10-12-0-9-10-0-7-9-7----------------------|
A|--------------------------------------------------------------|
D|--------------------------------------------------------------|
								x2
E|--------------------------------------------------------------|
B|--------------------------------------------------------------|
G|--------------------------------------------------------------|
D|--0-14-15-0-12-14-0-10-12-0-9-10-9h10p9h10p9h10p9h10p9--------|
A|--------------------------------------------------------------|
D|--------------------------------------------------------------|

Guitar 1
E|--------------------------------------------------------------|
B|--------------------------------------------------------------|
G|--------------------------------------------------------------|
D|--0--5--7--0--3--5--0--3-3-2-3-2-3-0--------------------------|
A|--0--5--7--0--3--5--0--3-3-2-3-2-3-0--------------------------|
D|--0--5--7--0--3--5--0--3-3-2-3-2-3-0--------------------------|
								x2

Guitar 2 (Same timing as guitar 1)
E|--------------------------------------------------------------|
B|--------------------------------------------------------------|
G|--------------------------------------------------------------|
D|--0--12-15-0-10-12--0--3-3-2-3-2-3-0--------------------------|
A|--0--12-15-0-10-12--0--3-3-2-3-2-3-0--------------------------|
D|--0--12-15-0-10-12--0--3-3-2-3-2-3-0--------------------------|
								x2

Guitar 1
E|--------------------------------------------------------------|
B|--------------------------------------------------------------|
G|--------------------------------------------------------------|
D|------3-----3-----3-----3-----3-----5-----5-----5---7--8--7---|
A|--------------------------------------------------------------|
D|--x0x1--x0x1--x0x1--x0x1--x0x1--x0x3--x0x3--x0x3--x5-x6-x5----|

Guitar 2 (Same timing as Guitar 1)
E|--------------------------------------------------------------|
B|--------------------------------------------------------------|
G|--------------------------------------------------------------|
D|------10----10----10----10----10----12---12----12----14-15-14-|
A|--------------------------------------------------------------|
D|--x0x8--x0x8--x0x8--x0x8--x0x8--x0x10-x0x10-x0x10--x12x13x12--|


Guitar 1 & 2
E|--------------------------------------------------------------|
B|--------------------------------------------------------------|
G|--------------------------------------------------------------|
D|--0---------------3---------------7---------------------------|
A|--0---------------3---------------7---------------------------|
D|--0---------------3---------------7---------------------------|

Guitar 1
E|--------------------------------------------------------------|
B|--------------------------------------------------------------|
G|--------------------------------------------------------------|
D|--x0-x0-x0x0x0----------------------x0-x0-x0x0x0--3-33--5-55--|
A|--x0-x0-x0x0x0--Pause-for-guitar-2--x0-x0-x0x0x0--3-33--5-55--|
D|--x0-x0-x0x0x0----------------------x0-x0-x0x0x0--3-33--5-55--|
								x2

E|--------------------------------------------------------------|
B|--------------------------------------------------------------|
G|--------------------------------------------------------------|
D|--x0-x0-x0x0x0-------3--33333-------x0-x0-x0x0x0--3-33--5-55--|
A|--x0-x0-x0x0x0----------------------x0-x0-x0x0x0--3-33--5-55--|
D|--x0-x0-x0x0x0----------------------x0-x0-x0x0x0--3-33--5-55--|
								x2

Guitar 2 (Same timing as Guitar 1)
E|--------------------------------------------------------------|
B|--------------------------------------------------------------|
G|--------------------------------------------------------------|
D|--x0-x0-x0x0x0----10--1010101010----x0-x0-x0x0x0--3-33--5-55--|
A|--x0-x0-x0x0x0----------------------x0-x0-x0x0x0--3-33--5-55--|
D|--x0-x0-x0x0x0----------------------x0-x0-x0x0x0--3-33--5-55--|
								x4


Guitar 1
E|--------------------------------------------------------------|
B|--------------------------------------------------------------|
G|--0-7-8-0-5-7-0-3-5-0-2-3-0-2-5-4-----------------------------|
D|--------------------------------------------------------------|
A|--------------------------------------------------------------|
D|--------------------------------------------------------------|
								x2
E|--------------------------------------------------------------|
B|--------------------------------------------------------------|
G|--0-7-8-0-5-7-0-3-5-0-2-3-2h3p2h3p2h3p2h3p2-------------------|
D|--------------------------------------------------------------|
A|--------------------------------------------------------------|
D|--------------------------------------------------------------|
(Slide down the neck to lead into the chorus)

Guitar 2 (Same timing as Guitar 1)
E|--------------------------------------------------------------|
B|--------------------------------------------------------------|
G|--------------------------------------------------------------|
D|--0-14-15-0-12-14-0-10-12-0-9-10-0-7-9-7----------------------|
A|--------------------------------------------------------------|
D|--------------------------------------------------------------|
								x2
E|--------------------------------------------------------------|
B|--------------------------------------------------------------|
G|--------------------------------------------------------------|
D|--0-14-15-0-12-14-0-10-12-0-9-10-9h10p9h10p9h10p9h10p9--------|
A|--------------------------------------------------------------|
D|--------------------------------------------------------------|
(Slide down the neck to lead into the chorus)


Chorus - Guitar 1 and Guitar 2
E|--------------------------------------------------------------|
B|--------------------------------------------------------------|
G|--------------------------------------------------------------|
D|--3---0---7---0---x0x0x0x0--3---0---7---0---x0x0x0x0----------|
A|--3---0---7---0---x0x0x0x0--3---0---7---0---x0x0x0x0----------|
D|--3---0---7---0---x0x0x0x0--3---0---7---0---x0x0x0x0----------|

Guitar 1
E|--------------------------------------------------------------|
B|--------------------------------------------------------------|
G|--------------------------------------------------------------|
D|------3-----3-----3-----3-----3-----5-----5-----5---7--8--7---|
A|--------------------------------------------------------------|
D|--x0x1--x0x1--x0x1--x0x1--x0x1--x0x3--x0x3--x0x3--x5-x6-x5----|

Guitar 2 (Same timing as Guitar 1)
E|--------------------------------------------------------------|
B|--------------------------------------------------------------|
G|--------------------------------------------------------------|
D|------10----10----10----10----10----12---12----12----14-15-14-|
A|--------------------------------------------------------------|
D|--x0x8--x0x8--x0x8--x0x8--x0x8--x0x10-x0x10-x0x10--x12x13x12--|

Guitar 1 and Guitar 2
E|--------------------------------------------------------------|
B|--------------------------------------------------------------|
G|--------------------------------------------------------------|
D|--3---0---7---0---x0x0x0x0--3---0---7---0---x0x0x0x0----------|
A|--3---0---7---0---x0x0x0x0--3---0---7---0---x0x0x0x0----------|
D|--3---0---7---0---x0x0x0x0--3---0---7---0---x0x0x0x0----------|

Guitar 1
E|--------------------------------------------------------------|
B|--------------------------------------------------------------|
G|--------------------------------------------------------------|
D|------3-----3-----3-----3-----3-----5-----5-----5---7--8--7---|
A|--------------------------------------------------------------|
D|--x0x1--x0x1--x0x1--x0x1--x0x1--x0x3--x0x3--x0x3--x5-x6-x5----|

Guitar 2 (Same timing as Guitar 1)
E|--------------------------------------------------------------|
B|--------------------------------------------------------------|
G|--------------------------------------------------------------|
D|------10----10----10----10----10----12---12----12----14-15-14-|
A|--------------------------------------------------------------|
D|--x0x8--x0x8--x0x8--x0x8--x0x8--x0x10-x0x10-x0x10--x12x13x12--|


Guitar 1
E|--------------------------------------------------------------|
B|--------------------------------------------------------------|
G|--------------------------------------------------------------|
D|--x0-x0-x0x0x0----------------------x0-x0-x0x0x0--3-33--5-55--|
A|--x0-x0-x0x0x0--Pause-for-guitar-2--x0-x0-x0x0x0--3-33--5-55--|
D|--x0-x0-x0x0x0----------------------x0-x0-x0x0x0--3-33--5-55--|
								x2

E|--------------------------------------------------------------|
B|--------------------------------------------------------------|
G|--------------------------------------------------------------|
D|--x0-x0-x0x0x0-------3--33333-------x0-x0-x0x0x0--3-33--5-55--|
A|--x0-x0-x0x0x0----------------------x0-x0-x0x0x0--3-33--5-55--|
D|--x0-x0-x0x0x0----------------------x0-x0-x0x0x0--3-33--5-55--|
								x2

Guitar 2 (Same timing as Guitar 1)
E|--------------------------------------------------------------|
B|--------------------------------------------------------------|
G|--------------------------------------------------------------|
D|--x0-x0-x0x0x0----10--1010101010----x0-x0-x0x0x0--3-33--5-55--|
A|--x0-x0-x0x0x0----------------------x0-x0-x0x0x0--3-33--5-55--|
D|--x0-x0-x0x0x0----------------------x0-x0-x0x0x0--3-33--5-55--|
								x4

Guitar 1
E|--------------------------------------------------------------|
B|--------------------------------------------------------------|
G|--0-7-8-0-5-7-0-3-5-0-2-3-0-2-5-4-----------------------------|
D|--------------------------------------------------------------|
A|--------------------------------------------------------------|
D|--------------------------------------------------------------|
								x2
E|--------------------------------------------------------------|
B|--------------------------------------------------------------|
G|--0-7-8-0-5-7-0-3-5-0-2-3-2h3p2h3p2h3p2h3p2-------------------|
D|--------------------------------------------------------------|
A|--------------------------------------------------------------|
D|--------------------------------------------------------------|
(Slide down the neck to lead into the chorus)

Guitar 2 (Same timing as Guitar 1)
E|--------------------------------------------------------------|
B|--------------------------------------------------------------|
G|--------------------------------------------------------------|
D|--0-14-15-0-12-14-0-10-12-0-9-10-0-7-9-7----------------------|
A|--------------------------------------------------------------|
D|--------------------------------------------------------------|
								x2
E|--------------------------------------------------------------|
B|--------------------------------------------------------------|
G|--------------------------------------------------------------|
D|--0-14-15-0-12-14-0-10-12-0-9-10-9h10p9h10p9h10p9h10p9--------|
A|--------------------------------------------------------------|
(Slide down the neck to lead into the chorus)


Chorus - Guitar 1 and Guitar 2
E|--------------------------------------------------------------|
B|--------------------------------------------------------------|
G|--------------------------------------------------------------|
D|--3---0---7---0---x0x0x0x0--3---0---7---0---x0x0x0x0----------|
A|--3---0---7---0---x0x0x0x0--3---0---7---0---x0x0x0x0----------|
D|--3---0---7---0---x0x0x0x0--3---0---7---0---x0x0x0x0----------|
[ Tab from: http://www.guitartabs.cc/tabs/b/bullet_for_my_valentine/hand_of_blood_tab.html ]
Guitar 1
E|--------------------------------------------------------------|
B|--------------------------------------------------------------|
G|--------------------------------------------------------------|
D|------3-----3-----3-----3-----3-----5-----5-----5---7--8--7---|
A|--------------------------------------------------------------|
D|--x0x1--x0x1--x0x1--x0x1--x0x1--x0x3--x0x3--x0x3--x5-x6-x5----|

Guitar 2 (Same timing as Guitar 1)
E|--------------------------------------------------------------|
B|--------------------------------------------------------------|
G|--------------------------------------------------------------|
D|------10----10----10----10----10----12---12----12----14-15-14-|
A|--------------------------------------------------------------|
D|--x0x8--x0x8--x0x8--x0x8--x0x8--x0x10-x0x10-x0x10--x12x13x12--|

Guitar 1 and Guitar 2
E|--------------------------------------------------------------|
B|--------------------------------------------------------------|
G|--------------------------------------------------------------|
D|--3---0---7---0---x0x0x0x0--3---0---7---0---x0x0x0x0----------|
A|--3---0---7---0---x0x0x0x0--3---0---7---0---x0x0x0x0----------|
D|--3---0---7---0---x0x0x0x0--3---0---7---0---x0x0x0x0----------|

Guitar 1
E|--------------------------------------------------------------|
B|--------------------------------------------------------------|
G|--------------------------------------------------------------|
D|------3-----3-----3-----3-----3-----5-----5-----5---7--8--7---|
A|--------------------------------------------------------------|
D|--x0x1--x0x1--x0x1--x0x1--x0x1--x0x3--x0x3--x0x3--x5-x6-x5----|

Guitar 2 (Same timing as Guitar 1)
E|--------------------------------------------------------------|
B|--------------------------------------------------------------|
G|--------------------------------------------------------------|
D|------10----10----10----10----10----12---12----12----14-15-14-|
A|--------------------------------------------------------------|
D|--x0x8--x0x8--x0x8--x0x8--x0x8--x0x10-x0x10-x0x10--x12x13x12--|


Solo - Guitar 1
E|--------------------------------------------------------------|
B|--------------------------------------------------------------|
G|--7-----12---9---5-----17-15-14-13-11-17-15-14-13-11-17-11-17-|
D|--------------------------------------------------------------|
A|--------------------------------------------------------------|
D|--------------------------------------------------------------|

E|--------------------------------------------------------------|
B|--------------------------------------------------------------|
G|--------------------------------------------------------------|
D|-10--12--13--15--12--13--15--16--17b--------------------------|
A|--------------------------------------------------------------|
D|--------------------------------------------------------------|

E|--------------------------------------------------------------|
B|--------------------------------------------------------------|
G|---0-5-7-8---5-7-8-10-8-7-5----0-5-7-8---5-7-8-10-8-7-5-------|
D|--------------------------------------------------------------|
A|--------------------------------------------------------------|
D|--------------------------------------------------------------|


E|--------------------------------------------------------------|
B|--------------------------------------------------------------|
G|---0-5-7-8---5-7-8-10-8-7-5----0-5-7-8---10-8-7-5-9-7-6-4-----|
D|--------------------------------------------------------------|
A|--------------------------------------------------------------|
D|--------------------------------------------------------------|

Guitar 2 joins
E|--------------------------------------------------------------|
B|--------------------------------------------------------------|
G|--------------------------------------------------------------|
D|---0-5-7-8---5-7-8-10-8-7-5----0-5-7-8---5-7-8-10-8-7-5-------|
A|--------------------------------------------------------------|
D|--------------------------------------------------------------|


E|--------------------------------------------------------------|
B|--------------------------------------------------------------|
G|--------------------------------------------------------------|
D|---0-5-7-8---5-7-8-10-8-7-5----0-5-7-8---10-8-7-5-9-7-6-4-----|
A|--------------------------------------------------------------|
D|--------------------------------------------------------------|

Guitar 2 Continues same
E|--------------------------------------------------------------|
B|--------------------------------------------------------------|
G|--------------------------------------------------------------|
D|---0-5-7-8---5-7-8-10-8-7-5----0-5-7-8---5-7-8-10-8-7-5-------|
A|--------------------------------------------------------------|
D|--------------------------------------------------------------|

E|--------------------------------------------------------------|
B|--------------------------------------------------------------|
G|--------------------------------------------------------------|
D|---0-5-7-8---5-7-8-10-8-7-5----0-5-7-8---10-8-7-5-9-7-6-4-----|
A|--------------------------------------------------------------|
D|--------------------------------------------------------------|

Guitar 1 moves back to G string (Same timing as guitar 2)
E|--------------------------------------------------------------|
B|--------------------------------------------------------------|
G|---0-5-7-8---5-7-8-10-8-7-5----0-5-7-8---5-7-8-10-8-7-5-------|
D|--------------------------------------------------------------|
A|--------------------------------------------------------------|
D|--------------------------------------------------------------|

E|--------------------------------------------------------------|
B|--------------------------------------------------------------|
G|---0-5-7-8---5-7-8-10-8-7-5----0-5-7-8---10-8-7-5-9-7-6-4-----|
D|--------------------------------------------------------------|
A|--------------------------------------------------------------|
D|--------------------------------------------------------------|


Guitar 2 - During start of solo
E|--------------------------------------------------------------|
B|--------------------------------------------------------------|
G|--------------------------------------------------------------|
D|--x0-x0-x0x0x0-----------x0-x0-x0x0x0---3-33-5-55-------------|
A|--x0-x0-x0x0x0-----------x0-x0-x0x0x0---3-33-5-55-------------|
D|--x0-x0-x0x0x0-----------x0-x0-x0x0x0---3-33-5-55-------------|
								x2

E|--------------------------------------------------------------|
B|--------------------------------------------------------------|
G|--------------------------------------------------------------|
D|--7------------3-----------7-------------3--------------------|
A|--7------------3-----------7-------------3--------------------|
D|--7------------3-----------7-------------3--------------------|
(Then move to the Solo, where Guitar 2 joins)


Guitar 2
E|--------------------------------------------------------------|
B|--------------------------------------------------------------|
G|--17p15-17p15-15p13-13p11-14p12-12p10-------------------------|
D|--------------------------------------------------------------|
A|--------------------------------------------------------------|
D|--------------------------------------------------------------|


E|--------------------------------------------------------------|
B|--------------------------------------------------------------|
G|--17p15-17p15-15p13-18p16-14p12-12p10-------------------------|
D|--------------------------------------------------------------|
A|--------------------------------------------------------------|
D|--------------------------------------------------------------|


E|--------------------------------------------------------------|
B|--------------------------------------------------------------|
G|--17p15-17p15-15p13-13p11-14p12-12p10-------------------------|
D|--------------------------------------------------------------|
A|--------------------------------------------------------------|
D|--------------------------------------------------------------|


E|--------------------------------------------------------------|
B|--------------------------------------------------------------|
G|--17p15-17p15-15p13-18p16-14p12-12p10-------------------------|
D|--------------------------------------------------------------|
A|--------------------------------------------------------------|
D|--------------------------------------------------------------|


Guitar 1 (During Guitar 2's Pull off - ending solo)
E|--------------------------------------------------------------|
B|--------------------------------------------------------------|
G|--------------------------------------------------------------|
D|--x5x5x5x5-5---x3x3x3x3-3---x5x5x5x5-5------------------------|
A|--x5x5x5x5-5---x3x3x3x3-3---x5x5x5x5-5------------------------|
D|--x5x5x5x5-5---x3x3x3x3-3---x5x5x5x5-5------------------------|

E|--------------------------------------------------------------|
B|--------------------------------------------------------------|
G|--------------------------------------------------------------|
D|0-x0x0x0x0x0x0x0x0x0x0x0x0x0x0--------------------------------|
A|0-x0x0x0x0x0x0x0x0x0x0x0x0x0x0--------------------------------|
D|0-x0x0x0x0x0x0x0x0x0x0x0x0x0x0--------------------------------|

As Guitar 1 Palm mutes
E|--------------------------------------------------------------|
B|--------------------------------------------------------------|
G|--------------------------------------------------------------|
D|---0-14-15-0-12-14-0-10-12-0-9-10-----------------------------|
A|--------------------------------------------------------------|
D|--------------------------------------------------------------|


End With the Chorus Guitar 1 and Guitar 2
E|--------------------------------------------------------------|
B|--------------------------------------------------------------|
G|--------------------------------------------------------------|
D|--3---0---7---0---x0x0x0x0--3---0---7---0---x0x0x0x0----------|
A|--3---0---7---0---x0x0x0x0--3---0---7---0---x0x0x0x0----------|
D|--3---0---7---0---x0x0x0x0--3---0---7---0---x0x0x0x0----------|

Guitar 1
E|--------------------------------------------------------------|
B|--------------------------------------------------------------|
G|--------------------------------------------------------------|
D|------3-----3-----3-----3-----3-----5-----5-----5---7--8--7---|
A|--------------------------------------------------------------|
D|--x0x1--x0x1--x0x1--x0x1--x0x1--x0x3--x0x3--x0x3--x5-x6-x5----|

Guitar 2 (Same timing as Guitar 1)
E|--------------------------------------------------------------|
B|--------------------------------------------------------------|
G|--------------------------------------------------------------|
D|------10----10----10----10----10----12---12----12----14-15-14-|
A|--------------------------------------------------------------|
D|--x0x8--x0x8--x0x8--x0x8--x0x8--x0x10-x0x10-x0x10--x12x13x12--|

Guitar 1 and Guitar 2
E|--------------------------------------------------------------|
B|--------------------------------------------------------------|
G|--------------------------------------------------------------|
D|--3---0---7---0---x0x0x0x0--3---0---7---0---x0x0x0x0----------|
A|--3---0---7---0---x0x0x0x0--3---0---7---0---x0x0x0x0----------|
D|--3---0---7---0---x0x0x0x0--3---0---7---0---x0x0x0x0----------|

Guitar 1
E|--------------------------------------------------------------|
B|--------------------------------------------------------------|
G|--------------------------------------------------------------|
D|------3-----3-----3-----3-----3-----5-----5-----5---7--8--7---|
A|--------------------------------------------------------------|
D|--x0x1--x0x1--x0x1--x0x1--x0x1--x0x3--x0x3--x0x3--x5-x6-x5----|

Guitar 2 (Same timing as Guitar 1)
E|--------------------------------------------------------------|
B|--------------------------------------------------------------|
G|--------------------------------------------------------------|
D|------10----10----10----10----10----12---12----12----14-15-14-|
A|--------------------------------------------------------------|
D|--x0x8--x0x8--x0x8--x0x8--x0x8--x0x10-x0x10-x0x10--x12x13x12--|


E|--------------------------------------------------------------|
B|--------------------------------------------------------------|
G|--------------------------------------------------------------|
D|--x0-x0-x0x0x0x0x0--------------------------------------------|
A|--x0-x0-x0x0x0x0x0--------------------------------------------|
D|--x0-x0-x0x0x0x0x0--------------------------------------------|
Comments