Bullet For My Valentine - Hand Of Blood Chords & Tabs

 

Hand Of Blood Chords & Tabs

Bullet For My Valentine Chords & Tabs

Version: 1 Type: Bass Tab 0 ratings
1 star 2 stars 3 stars 4 stars 5 stars
comments

Hand Of Blood Bass Tab

   
INTRO
F|--------------------------------------------------------------|
C|--------------------------------------------------------------|
G|--------------------------------------------------------------|
C|-0---0----0-0-0-0-0-0-0-0-0-0-0-0-0-0-0-----------------------|

F|--------------------------------------------------------------|
C|--------------------------------------------------------------|
G|--------------------------------------------------------------|
C|-0-5-7-0-3-5-0-3-3-23230(x2)---------------------------------|
[ Tab from: http://www.guitartabs.cc/tabs/b/bullet_for_my_valentine/hand_of_blood_btab.html ]
F|--------------------------------------------------------------|
C|--------------------------------------------------------------|
G|--------------------------------------------------------------|
C|-3-3-3-3-3-3-3-3-3-3-5-5-5-5-5-7-8-7--------------------------|
PRE VERSE
F|--------------------------------------------------------------|
C|--------------------------------------------------------------|
G|--------------------------------------------------------------|
C|-0---------3---------7----------------------------------------|
VERSE
F|--------------------------------------------------------------|
C|--------------------------------------------------------------|
G|--------------------------------------------------------------|
C|-0-0-000---------0-0-000---3-33-5-55-------------------------|
PRE CHORUS
F|--------------------------------------------------------------|
C|--------------------------------------------------------------|
G|--------------------------------------------------------------|
C|-0--0--0--0-0-0-0-0-------------------------------------------|
CHORUS
F|--------------------------------------------------------------|
C|--------------------------------------------------------------|
G|--------------------------------------------------------------|
C|-3-0-7-0-000-3-0-7-0-000--3-3-3-3-3-3-3-3-3-3-5-5-5-5-5-7-8-7-|

F|--------------------------------------------------------------|
C|--------------------------------------------------------------|
G|--------------------------------------------------------------|
C|-3-3-3-3-3-3-3-3-3-3-5-5-5-5-5-7-8-7--------------------------|
FIRST PART OF SOLO
F|--------------------------------------------------------------|
C|--------------------------------------------------------------|
G|--------------------------------------------------------------|
C|-0-0-000---------0-0-000---3-33-5-55-------------------------|
MAIN PART OF SOLO
F|--------------------------------------------------------------|
C|--------------------------------------------------------------|
G|--------------------------------------------------------------|
C|-0000000000000-555555555555-00000000000-555555510101010101010-|
END OF SOLO
F|--------------------------------------------------------------|
C|--------------------------------------------------------------|
G|--------------------------------------------------------------|
C|-0-0-0-0-0-(x4)-00000000000000000-----------------------------|
END
F|--------------------------------------------------------------|
C|--------------------------------------------------------------|
G|--------------------------------------------------------------|
C|-0-0-000------------------------------------------------------|

ORDER

INTRO
PRE VERSE
VERSE x4
PRE CHORUS
CHORUS x2
VERSE x4
PRE CHORUS
CHORUS x2
FIRST PART OF SOLO x2
MAIN PART OF SOLO x3
END OF SOLO
CHORUS x2
END
Comments