Bullet For My Valentine - Four Words To Choke Upon Chords & Tabs

 

Four Words To Choke Upon Chords & Tabs

Bullet For My Valentine Chords & Tabs

Version: 2 Type: Tab 0 ratings
1 star 2 stars 3 stars 4 stars 5 stars
comments

Four Words To Choke Upon Tab

   
DROP D TUNING: D A D G B E
*: PALM MUTE
^:BEND
/:SLIDE

E------17-----17--17-----18-----18--18-----17-----17--17-----20-----20--20-|
B-15-15--15-15--15--15-15--15-15--15--15-15--15-15--15--15-15--15-15--15---|
G--------------------------------------------------------------------------|X4
D--------------------------------------------------------------------------|
A--------------------------------------------------------------------------|
D--------------------------------------------------------------------------|

E---------------------5----5--5----6----6--6------------------------------|
B------------------3-3--3-3--3--3-3--3-3--3-X2----------------------------|
G-------------------------------------------------------------------------|
D-3-2-0-3--3-2-0-3----------------------------3-2-0-3--3-2-0-3------------|
A-3-2-0----3-2-0------------------------------3-2-0----3-2-0--------------|
D-3-2-0----3-2-0------------------------------3-2-0----3-2-0--------------|
  * * * ^  * * * ^                            * * * ^  * * * ^
E----5----5--5----6----6--6-----------------------------------------------|
B-3-3--3-3--3--3-3--3-3--3------------------------------------------------|
G-------------------------------------------------------------------------|
D---------------------------3-2-0-3--3-2-0-3LET RING----------------------|
A---------------------------3-2-0----3-2-0--------------------------------|
D---------------------------3-2-0----3-2-0--------------------------------|
                            * * * ^  * * * ^
E-------------------------------------------------------------------------|
B-------------------------------------------------------------------------|
G-------------------------------------------------------------------------|
D-77777777777777778888888877773333777777777777777788888888101010103333----|X2
A-55555555555555558888888877773333555555555555555588888888101010103333----|
D-----------------8888888877773333----------------88888888101010103333----|
[ Tab from: http://www.guitartabs.cc/tabs/b/bullet_for_my_valentine/four_words_to_choke_upon_tab_ver_2.html ]
E-------------------------------------------------------------------------|
B-------------------------------------------------------------------------|
G-------------------------------------------------------------------------|
D-------8-------8--------------------8-------8----------------------------|
A-------6-------6--------3H5P3H5------6-------6---------------------------|
D-0-0-0---0-0-0---0-0-0-0-------0-0-0---0-0-0---0-0-0-05^^^^--------------|
  * * *   * * *   * * * *       * * *   * * *   * * * *
E-------------------------------------------------------------------------|
B-------------------------------------------------------------------------|
G-------------------------------------------------------------------------|
D-3-2-0-3-3-2-0-3LET RING-------------------------------------------------|
A-3-2-0---3-2-0-----------------------------------------------------------|
D-3-2-0---3-2-0-----------------------------------------------------------|
  * * * ^ * * * ^
E-------------------------------------------------------------------------|
B-------------------------------------------------------------------------|
G-------------------------------------------------------------------------|
D-77777777777777778888888877773333777777777777777788888888101010103333----|
A-55555555555555558888888877773333555555555555555588888888101010103333----|
D-----------------8888888877773333----------------88888888101010103333----|

E-------------------------------------------------------------------------|
B-------------------------------------------------------------------------|
G-------------------------------------------------------------------------|
D-------8-------8---------------------8-------8---------------------------|X2
A-------6-------6--------3H5P3H5------6-------6---------------------------|
D-0-0-0---0-0-0---0-0-0-0-------0-0-0---0-0-0---0-0-0-05^^^^--------------|

E-------------------------------------------------------------------------|
B-------------------------------------------------------------------------|
G-------------------------------------------------------------------------|
D-0-0-0-1-0-0-0-1-0-0-0-1-------------------------------------------------|X4
A-0-0-0-1-0-0-0-1-0-0-0-1-------------------------------------------------|
D-0-0-0-1-0-0-0-1-0-0-0-1-------------------------------------------------|

SOLO
E-13P10-----13P1013P10----------------------------------------------------|
B------11P10----------11P1O-----------------------------------------------|
G-------------------------------------------------------------------------|
D-------------------------------------------------------------------------|X4
A-------------------------------------------------------------------------|
D-------------------------------------------------------------------------|

E------------------------------------13--------12-------------------------|
B-1//3--1//5--1//6--1//8-----10-11-10--10-11-10---------------------------|
G-------------------------------------------------------------------------|
D-------------------------------------------------------------------------|
A-------------------------------------------------------------------------|
D-------------------------------------------------------------------------|
X2 (LAST BIT OF THAT)

E--------------------------------------------------------------------------|
B--------------------------------------------------------------------------|
G--------------------------------------------------------------------------|
D-8--------7--------3------------------------------------------------------|
A-8LET RING7LET RING3------------------------------------------------------|
D-8--------7--------3------------------------------------------------------|

E-------------------------------------------------------------------------|
B-------------------------------------------------------------------------|
G-------------------------------------------------------------------------|
D-77777777777777778888888877773333777777777777777788888888101010103333----|
A-55555555555555558888888877773333555555555555555588888888101010103333----|
D-----------------8888888877773333----------------88888888101010103333----|

E
B-------------------------------------------------5H6P5H6LET RING----------|
G--------------------------------------------------------------------------|
D------8------8--------------------8------8----------------------0-0-0-0-0-|
A------6------6--------3H5P3H5-----6------6----------------------0-0-0-0-0-|
D-0-0-0--0-0-0--0-0-0-0-------0-0-0--0-0-0--0-0-0-0--------------0-0-0-0-0-|
Comments