Bullet For My Valentine - Four Words To Choke Upon Chords & Tabs

 

Four Words To Choke Upon Chords & Tabs

Bullet For My Valentine Chords & Tabs

Version: 1 Type: Bass Tab 0 ratings
1 star 2 stars 3 stars 4 stars 5 stars
comments

Four Words To Choke Upon Bass Tab

   
Four Words To Choke Upon by Bullet For My Valentine

this is a best of a song, thought i'd tab it up as i'm seeing them with FFAF at the 
on the 28th of June!

This Song is in the tuning C G C F (but sounds ok in D A D G)

Tabbed by: Dandy Andy : satan_666_jesus@hotmail.com

Intro (work out timing)

F-----------------------------------------|
C-----------------------------------------|
G-----------------------------------------|
C-----0-------12-/------------------------|

Pre Verse (bit with pinched harmonics on the guitar part)

F--------------------------------------------|
C--------------------------------------------|
G----------4-------4-------------------------|
C--0-1-0----0-1-0---0-1-0--------------------|

Verse

F-----------------------------------------------------------------------|
C-----------------------------------------------------------------------|
G---------------------------------------------4---------4---------------|
C--3-1-0-----3-1-0-----3-1-0------0-1-0----0-1-0---0-1-0----3-----------|

Chorus

F-------------------------------------------------------|
C-------------------------------------------------------|
G--7-7-7-7-7-7-7-7--------------------------------------|
C----------------------8-8-8-8-8-8-8-8--7-7--3-3--------|

F-------------------------------------------------------|
C-------------------------------------------------------|
G--7-7-7-7-7-7-7-7--------------------------------------|
C----------------------8-8-8-8-8-8-8-8--10-10--3-3------|

F-----------------------------------------------------------------------|
C-----------------------------------------------------------------------|
G--7-7-7-7-7-7-7-7----7----7-----7-----7--------------------------------|
C-----------------------------------------------8-8-8---7-7--3-3--------|

F-------------------------------------------------------|
C-------------------------------------------------------|
G--7-7-7-7-7-7-7-7--------------------------------------|
C--------------------------8---------7----------3-------|

Post Chorus Riff

F-----------------------------------------------------------------------------|
C-----------------------------------------------------------------------------|
G---------5---------5-------5-/-6-/-5-/-6-/-5----------5---------5------------|
C--0-0-0----0-0-0---0-0-0---------------------0-0-0----0-0-0---0-0-0-0-5------|b (hold)

F-----------------------------------------------------------------------------|
C-----------------------------------------------------------------------------|
G---------5---------5------5-/-6-/-5-/-6-/-5----------5---------5-------------|
C--0-0-0---0-0-0---0-0-0-------------------0-0-0----0-0-0---0-0-0-012-/-0----|

Pre Verse (bit with pinched harmonics on the guitar part)

F--------------------------------------------|
C--------------------------------------------|
G----------4-------4-------------------------|
C--0-1-0----0-1-0---0-1-0--------------------|

Verse

F-----------------------------------------------------------------------|
C-----------------------------------------------------------------------|
G---------------------------------------------4---------4---------------|
C--3-1-0-----3-1-0-----3-1-0------0-1-0----0-1-0---0-1-0----3-----------|

Chorus

F-------------------------------------------------------|
C-------------------------------------------------------|
G--7-7-7-7-7-7-7-7--------------------------------------|
C----------------------8-8-8-8-8-8-8-8--7-7--3-3--------|
[ Tab from: http://www.guitartabs.cc/tabs/b/bullet_for_my_valentine/four_words_to_choke_upon_btab.html ]
F-------------------------------------------------------|
C-------------------------------------------------------|
G--7-7-7-7-7-7-7-7--------------------------------------|
C----------------------8-8-8-8-8-8-8-8--10-10--3-3------|

F------------------------------------------------------------------------|
C------------------------------------------------------------------------|
G--7-7-7-7-7-7-7-7----7----7-----7-----7---------------------------------|
C-----------------------------------------------8-8-8---7-7--3-3---------|

F-------------------------------------------------------|
C-------------------------------------------------------|
G--7-7-7-7-7-7-7-7--------------------------------------|
C--------------------------8---------7----------3-------|

Post Chorus Riff

F-----------------------------------------------------------------------------|
C-----------------------------------------------------------------------------|
G---------5---------5-------5-/-6-/-5-/-6-/-5----------5---------5------------|
C--0-0-0----0-0-0---0-0-0---------------------0-0-0----0-0-0---0-0-0-0-5------|b (hold)

F-----------------------------------------------------------------------------|
C-----------------------------------------------------------------------------|
G---------5---------5-------5-/-6-/-5-/-6-/-5----------5---------5------------|
C--0-0-0----0-0-0---0-0-0---------------------0-0-0----0-0-0---0-0-0-0-5------|b (hold)

Bridge (back of solo also)

F----------------------------------------------------------------------|
C----------------------------------------------------------------------|
G----------------------------------------------------------------------|
C--0-0-0-1-0-0------0-0-0-1-----0-0-0-1-0-0------0-0-0-1---------------|

After Solo Is Just Guitar until...."For words to choke Upon...."

F---------------------|
C---------------------|
G---------------------|
C----8------7----3----|

Chorus

F-------------------------------------------------------|
C-------------------------------------------------------|
G--7-7-7-7-7-7-7-7--------------------------------------|
C----------------------8-8-8-8-8-8-8-8--7-7--3-3--------|

F-------------------------------------------------------|
C-------------------------------------------------------|
G--7-7-7-7-7-7-7-7--------------------------------------|
C----------------------8-8-8-8-8-8-8-8--10-10--3-3------|

F------------------------------------------------------------------------|
C------------------------------------------------------------------------|
G--7-7-7-7-7-7-7-7----7----7-----7-----7---------------------------------|
C-----------------------------------------------8-8-8---7-7--3-3---------|

F-------------------------------------------------------|
C-------------------------------------------------------|
G--7-7-7-7-7-7-7-7--------------------------------------|
C--------------------------8---------7----------3-------|

End

F----------------------------------------------------------------------------|
C---------------------------------------------------------------------12-/-0-|
G---------5---------5-------5-/-6-/-5-/-6-/-5----------5---------5-----------|
C--0-0-0----0-0-0---0-0-0---------------------0-0-0----0-0-0---0-0-0-0-------|

F--------------------------------------------------------------|
C--------------------------------------------------------------|
G---------5---------5------------------------------------------|
C--0-0-0----0-0-0-----7-8-7-8------2-3-0-----------------------|

Intro x 2
Pre verse x1
Verse x2
Chorus x1
Post Chorus Riff
Pre verse x1
Verse x2
Chorus x1
Bridge x2
Solo x8
NOTHING JUST AFTER SOLO (GUITAR ONLY)
After solo bit
Chorus x1
End

Key:
/ = Slide (12/0 means slide from 12 to the top of the neck)
b = bend
hold = hold for however long the note is
Comments