Bullet For My Valentine - Cries In Vain Chords & Tabs

 

Cries In Vain Chords & Tabs

Bullet For My Valentine Chords & Tabs

Version: 1 Type: Tab 2 ratings
1 star 2 stars 3 stars 4 stars 5 stars
comments

Cries In Vain Tab

Atrist: Bullet For My Valentine
Title: Cries In Vain
Album: Hand Of Blood
Tabber: ilager_dk – ilager_dk@hotmail.co.uk

Tuning - Drop C - CGCFAd


INTRO

Gtr 1 w/ phaser or wah
|---------------------------------|---------------------------------|
|---------------------------------|---------------------------------|
|---5---4-----------5---4---------|---5---4-----------5---7---4-4-4-|
|-----------5---7-----------3---2-|-----------5---7-----------------|
|-0---0---0---0---0---0---0---0---|-0---0---0---0---0---0---0-------|
|---------------------------------|---------------------------------|
PM.   .   .   .   .   .   .   .     .   .   .   .   .   .   .



Gtr 1
|-----------------0------------------------|            |-----------------0------------------------|
|-----------------6------------------------|            |-----------------0------------------------|
|-----------------5------------------------|            |--------------2--4------------------------|
|-3-3-3-3-3-3--3--3------------------------|            |-2-2-2-2-2-2--2--2------------------------|
|-3-3-3-3-3-3--3--3------------------------|            |-0-0-0-0-0-0--0--0------------------------|
|-3-3-3-3-3-3--3--3------------------------|            |------------------------------------------|
| . . . . . .                                   X2      | . . . . . .                                  X2
|                                                       |
|Gtr 2                                                  |
|------------------------------------------|            |------------------------------------------|
|------------------------------------------|            |------------------------------------------|
|----------------5-4---7-5---4-5---4-5-----|            |----------------5-4---7-5---4-5---4-5-----|
|--------------------5-----5-----5---------|            |--------------------5-----5-----5---------|
|------------------------------------------|            |------------------------------------------|
|------------------------------------------|            |------------------------------------------|




|-----------------0------------------------|            |-----------------0------------------------|
|-----------------6------------------------|            |-----------------0------------------------|
|-----------------5------------------------|            |--------------2--4------------------------|
|-3-3-3-3-3-3--3--3------------------------|            |-2-2-2-2-2-2--2--2------------------------|
|-3-3-3-3-3-3--3--3------------------------|            |-0-0-0-0-0-0--0--0------------------------|
|-3-3-3-3-3-3--3--3------------------------|            |------------------------------------------|
| . . . . . .                                           | . . . . . .
|                                                       |
|Gtr 2                                                  |
|------------------------------------------|            |------------------------------------------|
|------------------------------------------|	        |------------------------------------------|
|----------------5-4---7-5---4-5---4-5-----|            |----------------5-4---7-5---4-5---4-5-----|
|--------------------5-----5-----5---------|   X2       |--------------------5-----5-----5---------|
|------------------------------------------|            |------------------------------------------|
|------------------------------------------|            |------------------------------------------|
|                                                       |
|                                                       |
|Gtr 3                                                  |
|----------------------3-------------------|            |----------------------3-------------------|
|----------------5-3-----5---3-5---3-5-----|            |----------------5-3-----5---3-5---3-5-----|
|--------------------5-----5-----5---------|            |--------------------5-----5-----5---------|
|------------------------------------------|            |------------------------------------------|
|------------------------------------------|            |------------------------------------------|
|------------------------------------------|            |------------------------------------------|



|-----------------0------------------------|
|-----------------0------------------------|
|--------------2--4------------------------|
|-2-2-2-2-2-2--2--2------------------------|
|-0-0-0-0-0-0--0--0------\\\\\\\\\---------|
|------------------------------------------|
| . . . . . .            Pick scrape
|
|                       ~~~~~~~~
|------------------------------------------|
|------------------------------------------|
|----------------5-4---5--------(5)\-------|
|--------------------5---------------------|
|------------------------------------------|
|------------------------------------------|
|
|
|                       ~~~~~~~~
|------------------------------------------|
|----------------5-3---6--------(6)\-------|
|--------------------5---------------------|
|------------------------------------------|
|------------------------------------------|
|------------------------------------------|


Verse

Guitar 1 and 2.. Guitar 1 Play Higher Harmony
                                                 AH
|-------------------|-----|-------------------|----------------|
|-------------------|-----|-------------------|--6\5-----------|
|-2-2-2-2-2-2-2--2--|-----|-2-2-2-2-2-2-2--2--|------7-5/7\5\4-|
|-2-2-2-2-2-2-2--2--|-----|-2-2-2-2-2-2-2--2—-|--3\2-0---------|
|-0-0-0-0-0-0-0--0--|-----|-0-0-0-0-0-0-0--0--|--------3/5\3\2-|
|-------------------|-----|-------------------|----------------|
  . . . . . .               . . . . . .

|-------------------|-----|-------------------|----------------|
|-------------------|-----|-------------------|----------------|
|-2-2-2-2-2-2-2--2--|-----|-2-2-2-2-2-2-2--2--|-2-2------------|
|-2-2-2-2-2-2-2--2--|-----|-2-2-2-2-2-2-2--2--|-2-2------------|
|-0-0-0-0-0-0-0--0--|-----|-0-0-0-0-0-0-0--0--|-0-0------------|
|-------------------|-----|-------------------|----------------|
  . . . . . .               . . . . . .         .


Guitar 2 Play Higher Harmony

               ~~~~~~               ~~~~ AH
|------------|-------|------------|---------------------|
|------------|-------|------------|---------------------|
|-------2--5-|-4-----|-------2--5-|-4----2/3\2----------|
|-2-2-2-2--7-|-5-----|-2-2-2-2--7-|-5----------3/5\3\2--|
|-0-0-0-0----|-------|-0-0-0-0----|---------------------|
|------------|-------|------------|---------------------|
  . . .                . . .

               ~~~~~~               ~~~~ AH
|------------|-------|------------|---------------------|
|------------|-------|------------|---------------------|
|-------2--5-|-7-----|-------2--5-|-4----2/3\2----------|
|-2-2-2-2--7-|-5-----|-2-2-2-2--7-|-5----------3/5\3\2--|
|-0-0-0-0----|-------|-0-0-0-0----|---------------------|
|------------|-------|------------|---------------------|
  . . .                . . .


CHORUS

Both Guitars
|-----------------0---------------|
|-----------------6---------------|
|-----------------5---------------| X2
|-3-3-3-3-3-3--3--3---------------|
|-3-3-3-3-3-3--3--3---------------|
|-3-3-3-3-3-3--3--3---------------|
  . . . . . .
[ Tab from: http://www.guitartabs.cc/tabs/b/bullet_for_my_valentine/cries_in_vain_tab.html ]
 Gtr1
|-----------------0---------------|
|-----------------0---------------|
|--------------2--4---------------|
|-2-2-2-2-2-2--2--2---------------|
|-0-0-0-0-0-0--0--0---------------|
|---------------------------------|
| . . . . . .                         X2
|
|Gtr 2
|---------------------------------|
|---------------------------------|
|-5-----4---4-----5-----4---4-----|
|---5-5---5---3-5---5-5---5---3-5-|
|---------------------------------|
|---------------------------------|
    . .   .   . .   . .   .   . .

Both Guitars
|-----------------0---------------|
|-----------------6---------------|
|-----------------5---------------| X2
|-3-3-3-3-3-3--3--3---------------|
|-3-3-3-3-3-3--3--3---------------|
|-3-3-3-3-3-3--3--3---------------|
  . . . . . .

 Gtr 1
|-----------------0---------------|---------------|
|-----------------0---------------|---------------|
|--------------2--4---------------|----------2--2-|
|-2-2-2-2-2-2--2--2-----------2-2-|-2-2-2-2--2--2-|
|-0-0-0-0-0-0--0--0-----------0-0-|-0-0-0-0--0--0-|
|---------------------------------|---------------|
| . . . . . .                 . .   . . . .
|
|Gtr 2
|---------------------------------|---------------|
|---------------------------------|---------------|
|-5-----4---4-----5-----4---4-----|-5-----4---4---|
|---5-5---5---3-5---5-5---5---3-5-|---5-5---5---3-|
|---------------------------------|---------------|
|---------------------------------|---------------|
|   . .   .   . .   . .   .   . .     . .   .
|
|Gtr 3
|---------------------------------|---------------|
|-5-----3---3-----5-----3---3-----|-5-----3---3---|
|---5-5---5---4-5---5-5---5---4-5-|---5-5---5---4-|
|---------------------------------|---------------|
|---------------------------------|---------------|
|---------------------------------|---------------|
    . .   .   . .   . .   .   . .     . .   .

Both Guitars
|-----------------|
|-----------------|
|---------------2-|
|-3-2-0---0-----2-|
|-------3---3-2-0-|
|-----------------|

  Guitar 1 intro w/ phaser or wah

  Verse

  Chorus

Bridge in 3 timing
          4

 Gtr 1
|--------------------------------------------------|
|--------------------------------------------------|
|--------------------------------------------------|
|-7-7-7-7-7-7-7-7-7-7-7-7-7-7-7-7-7-7--7-7-7-7-7-7-| X4
|-0-0-0-0-0-0-8-8-8-8-8-8-101010101010-7-7-7-7-7-7-|
|--------------------------------------------------|
  . . . . . . . . . . . . . . . . . .  . . . . . .

 Gtr 1
|--------------------------------------------------|
|--------------------------------------------------|
|--------------------------------------------------|
|-7-7-7-7-7-7-7-7-7-7-7-7-7-7-7-7-7-7--7-7-7-7-7-7-|
|-0-0-0-0-0-0-8-8-8-8-8-8-101010101010-7-7-7-7-7-7-|
|--------------------------------------------------|
| . . . . . . . . . . . . . . . . . .  . . . . . .
|                                                           X3
|Gtr 2
|--------------------------------------------------|
|--------------------------------------------------|
|-5-5-5-5-5-5-2-2-2-2-2-2-4-4-4-4-4-4--------------|
|-7-7-7-7-7-7-3-3-3-3-3-3-5-5-5-5-5-5--5-5-5-5-5-5-|
|--------------------------------------7-7-7-7-7-7-|
|--------------------------------------------------|
  . . . . . . . . . . . . . . . . . .  . . . . . .

 Gtr 1
|--------------------------------------------------|
|--------------------------------------------------|
|--------------------------------------------------|
|-7-7-7-7-7-7-7-7-7-7-7-7-7-7-7-7-7-7--7-----------|
|-0-0-0-0-0-0-8-8-8-8-8-8-101010101010-7-----------|
|--------------------------------------------------|
| . . . . . . . . . . . . . . . . . .
|
|Gtr 2
|--------------------------------------------------|
|--------------------------------------------------|
|-5-5-5-5-5-5-2-2-2-2-2-2-4-4-4-4-4-4--------------|
|-7-7-7-7-7-7-3-3-3-3-3-3-5-5-5-5-5-5--5-----------|
|--------------------------------------7-----------|
|--------------------------------------------------|
  . . . . . . . . . . . . . . . . . .

|-------------------------------------------------------------|
|-------------------------------------------------------------|
|-------------------------------------------------------------|
|-7------------3------------5----------2----------------------|
|-7------------3------------5----------2----------------------|
|-7------------3------------5----------2----------------------|
|
|                                                                X2
|
|-------------------------------------------------------------|
|-------------------------------------------------------------|
|-----9---9-10-----9---9-10-------9----9-10-10/12-10-9-10-9-7-|
|-7-7---7-----------------------------------------------------|
|--------------8-8---8------10-10---10------------------------|
|-------------------------------------------------------------|



|----------------------------------------------------------------|
|----------------------------------------------------------------|
|-----9---9-10-----9---9-10-------9----9-10-12-10h12p10\9-10-9-7-|
|-7-7---7--------------------------------------------------------|
|--------------8-8---8------10-10---10---------------------------|
|----------------------------------------------------------------|
|
|                                                                  X2
|
|----------------------------------------------------------------|
|------8--8/10-----8---8/10-------8----8/10----------------------|
|--------------------------------------------9-7-h9-p7\5--7--5-4-|
|-1010--10-----7-7---7------9--9-----9---------------------------|
|----------------------------------------------------------------|
|----------------------------------------------------------------|

Then Both Guitar Pick Scrape

Chorus


Outro

Repeat Gtr 1 intro riff w/ phaser X5

Gtr 2 Enter on second time of intro riff
|-----------------------------|-------------------------------|
|-----------------------------|-------------------------------|
|-2-2--2-2-2--2-2-2--2-2-2--2-|-2-2--2-2-2--2-----------------|
|-2-2--2-2-2--2-2-2--2-2-2--2-|-2-2--2-2-2--2-3-3-3-3-3-3-3-3-|  X4
|-0-0--0-0-0--0-0-0--0-0-0--0-|-0-0--0-0-0--0-3-3-3-3-3-3-3-3-|
|-----------------------------|---------------3-3-3-3-3-3-3-3-|
  . .  . . .  . . .  . . .  .   . .  . . .  . . . . . . . . .
               each time is repeated with less palm mute

Both guitars
              * - Natural Harmonics
|------------------------|     |-----------------|
|-----------5*5*5*5*5*5*-|     |-----------------|
|-2-2--2-2---------------|     |-----------------|
|-2-2--2-2---------------| X3  |-3-3-3-3-3---3---|
|-0-0--0-0---------------|     |-3-3-3-3-3h5-3---|
|------------------------|     |-3-3-3-3-3---3---|


 Gtr 1
|------------------------|     |-----------------|
|-----------5*5*5*5*5*5*-|     |-----------------|
|-2-2--2-2---------------|     |-----------------|
|-2-2--2-2---------------| X3  |-3-3-3-3-3-3-3-3-|
|-0-0--0-0---------------|     |-3-3-3-3-3-3-3-3-|
|------------------------|     |-3-3-3-3-3-3-3-3-|
|                              |
|Gtr 2                         |
|------------------------|     |-----------------|
|------------------------|     |-----------------|
|-2-2--2-2--5*5*5*5*5*5*-|     |-----------------|
|-2-2--2-2---------------| X3  |-3-3-3-3-3-3-3-3-|
|-0-0--0-0---------------|     |-3-3-3-3-3-3-3-3-|
|------------------------|     |-3-3-3-3-3-3-3-3-|


|---|
|---|
|-2-|
|-2-|
|-0-|
|---|


Comments