Built To Spill - Fly Around My Pretty Little Miss Chords & Tabs

 

Fly Around My Pretty Little Miss Chords & Tabs

Built To Spill Chords & Tabs

Version: 1 Type: Bass Tab 0 ratings
1 star 2 stars 3 stars 4 stars 5 stars
comments

Fly Around My Pretty Little Miss Bass Tab

   
-------------------------------------------------------------------------------
	    Built to Spill - Fly Around My Pretty Little Miss
-------------------------------------------------------------------------------

Tabbed By : Ryan Green
e-mail: rtgreen21@tntech.edu

Tuning: standard
(the * next to notes in the verse mean that emphasis is put on that note and the
folowing note is more subdued. listen to the song to get the rhythm.)
[ Tab from: http://www.guitartabs.cc/tabs/b/built_to_spill/fly_around_my_pretty_little_miss_btab.html ]
+-----------------------------------------------------+
|                   SONG STRUCTURE                    |
+-----------------------------------------------------+
| dug strums intro chords then it goes into the verse |
|                      verse                          |
|                      chorus                         |
|                      verse x 2                      |
|                      chorus                         |
|                      verse (solo)                   |
|                      chorus (bridge lyrics)         |
|                      verse (breakdown)              |
|                      chorus                         |
+-----------------------------------------------------+



verse
g-------------------------------------------------|
d------------------------0*-0*-----3*-0-3*-0------| x 4
a-3*-0-3*-0----0*-0*-------3--3-------------------|
e----------------3--0-----------------------------|



chorus
g---------------5-/7-/9------|
d----------------------------|   x4
a-0-0-0-0000-----------------|
e-----------3----------------|




| /  slide up
| \  slide down
| h  hammer-on
| p  pull-off
| ~  vibrato
| +  harmonic
| x  Mute note
===============================================================================
Comments