Built To Spill - Center Of The Universe Chords & Tabs

 

Center Of The Universe Chords & Tabs

Built To Spill Chords & Tabs

Version: 1 Type: Tab 0 ratings
1 star 2 stars 3 stars 4 stars 5 stars
comments

Center Of The Universe Tab

   
Tabbed by:CMM
Email:colin_michael_muppet@hotmail.com

Tuning:Standard

(Main Riff Pt.One)
e|-----------------------------------------------------------|
B|-----------------------------------------------------------|
G|-12/13---------------------11-11/13--11--9--9----13\---9~--|
D|--x--x--13/14--11--13--14---x--x--x---x--x--x-----x----9~--|
A|-10/11---x--x---x---x---x---9--9/11---9--7--7----11\---7~--|
E|--------11/12---9--11--12----------------------------------|
                                                       (Echo Effect)

(Main Riff Pt.Two/Outro)
e|----------------------------------------------|
B|------------0--------------0--------------0---|
G|----------------------------------------------|
D|-------5h6------------5h6------------5h6------|
A|-7--7-----------7--7-----------7--7-----------|
E|----------------------------------------------|

(Main Riff Pt.Three)
e|------------------|
B|------------------|
G|-13\11--11--12----|
D|--x-x----x---x----|
A|-11\9----9--10----|
E|------------------|

(Verse pt.One)
e|--0--0--0----------------------------------------|
B|--0--0--0---------------4-4-4-4-4---2-2-2-2-2----|
G|--1--1--1---8-8---6-6---4-4-4-4-4---2-2-2-2-2----|
D|--2--2--2---x-x---x-x---4-4-4-4-4---2-2-2-2-2----|
A|--2--2--2---6-6---4-4---2-2-2-2-2---0-0-0-0-0----|
E|--0--0--0----------------------------------------|
[ Tab from: http://www.guitartabs.cc/tabs/b/built_to_spill/center_of_the_universe_tab.html ]
(Verse pt.Two)
e|--0--0--0---------------------------------|
B|--0--0--0---------------------------------|
G|--1--1--1---8-8---6-6---8-9-11----6-8-9---|
D|--2--2--2---x-x---x-x---x-x--x----x-x-x---|
A|--2--2--2---6-6---4-4---6-7--9----4-6-7---|
E|--0--0--0---------------------------------|

(Verse Fill)
e|---------------------|
B|-9-0-9-0--10-0-10-0--|
G|---------------------|
D|---------------------|
A|---------------------|
E|---------------------|

(Chorus Chords pt.One)
e|------------------|
B|------------------|
G|-------6---4---2--|
D|---2---6---4---2--|
A|---2---4---2---0--|
E|---0--------------|

(Guitar Over pt.One)
e|-------------------------|
B|-------------------------|
G|-11/12---8/9---8-6-8-6---|
D|--x--x---x-x---x-x-x-x---|
A|--9/10---6/7---6-4-6-4---|
E|-------------------------|

(Chorus pt.Two)
e|------------------------------------------------|
B|------------------------------------------------|
G|-8-8-8-8-8---11-11-11-11-11---8-6-8-6-8-6-8-6---|
D|-x-x-x-x-x----x--x--x--x--x---x-x-x-x-x-x-x-x---|
A|-6-6-6-6-6----9--9--9--9--9---6-4-6-4-6-4-6-4---|
E|------------------------------------------------|

(Chorus pt.One Live)
e|------------------------------------------|
B|-------12-------------7/8-----------------|
G|-12-13----13-13\6----------8/9--8-6-8-6---|
D|------------------------------------------|
A|------------------------------------------|
E|------------------------------------------|


| /  slide up
| \  slide down
| h  hammer-on
| p  pull-off
| ~  vibrato
| +  harmonic
| x  Mute note
===============================================================================
Comments