Buggles - Video Killed The Radio Star Chords & Tabs

 

Video Killed The Radio Star Chords & Tabs

Buggles Chords & Tabs

Version: 2 Type: Tab 0 ratings
1 star 2 stars 3 stars 4 stars 5 stars
comments

Video Killed The Radio Star Tab

Band : Buggles
Song : Video Killed the Radio Star

'The Buggles' were Geoff Downes and Trevor Horn, and eventually went on
to form Yes (:-).  Later on Geoff ended up starting Asia (another great
80's new wave band ;-) and Trevor Horn became a hot-shot London producer
(Frankie Goes to Hollywood, Seal, et al).

PS: This was the first video ever shown on MTV circa 1980, and it's scary
how true this song turned out!  

=============================================================================

              transcribed for classical guitar by carl@netaxs.com

-----------------|------------------|--------------------|----------------------
----------12-----|-----------10-----|-----------8--------|----------------------
-------9---------|--------7---------|--------4-----------|----------------------
----9------------|-----7------------|-----5--------------|----------------------
10---------------|--9---------------|--7-----------------|----------------------
-----------------|------------------|--------------------|----------------------


10-----9------------|-------------------|------------------|--------------------
----------------12--|------------12-----|-----------10-----|--------------------
7------6------------|---------9---------|--------7---------|--------------------
----------------9---|------9------------|-----7------------|--------------------
--------------------|--10---------------|--9---------------|--------------------
--------------------|-------------------|------------------|--------------------


---------------|-----||---||---2--0--------0--------|---------------------------
---------8-----|-----||---||---------3-----------3--|---------------------------
------4--------|-----||*--||*--------2--------------|---------------------------
---5-----------|--7--||*--||*--0--------------------|---------------------------
7--------------|--0--||---||---------------2--------|---------------------------
---------------|-----||---||---------------------3--|---------------------------

                      4x

------------------0---||--------------------------|-----------------------------
3-----------2--3------||-----------3--0-----------|-----------------------------
2-----------------2--*||-----2--------------0--2--|-----------------------------
2--2-----2-----2-----*||-----------------------2--|-----------------------------
0-----0-----0---------||-----------------------0--|-----------------------------
----------------------||-----2--------3-----------|-----------------------------


------0-----2-----0-----|-------------------------|-----------------------------
---3-----3-----------3--|-----------3--0----------|-----------------------------
------------------------|-----2--------------0--2-|-----------------------------
------------------------|-----------------------2-|-----------------------------
------------------------|-----------------------0h|-----------------------------
------------------------|-----2--------3----------|-----------------------------

1/2 II

----2-3--2--5-----3--2--|-----5--5-----5-----5--5--|----------------------------
-----h------------------|--7-----------------------|----------------------------
----2-4--2--6-----4--2--|--------------------------|----------------------------
------------------------|--0-----------0-----------|----------------------------
------------------------|--------0-----------0-----|----------------------------
------------------------|--------------------------|----------------------------


---7--------------------|-----5--5-----5-----5--5--|----------------------------
------8-----8-----------|--7-----------------------|----------------------------
0-----------0-----------|--------------------------|----------------------------
------0-----------0-----|--0-----------0-----------|----------------------------
------------------------|--------0-----------0-----|----------------------------
------------------------|--------------------------|----------------------------


---7--------------------|--2--2--0-----0-----3--2--------|----------------------
------8-----8-----------|--3--3--2-----2-----3--3--3-----|----------------------
0-----------0-----------|--2--2--2-----2-----0--0--0-----|----------------------
------0-----------0-----|--0--0--------------------------|----------------------
------------------------|--------4-----4-----2--2--------|----------------------
------------------------|--------------------------3-----|----------------------

                                 2/3 II             II
[ Tab from: http://www.guitartabs.cc/tabs/b/buggles/video_killed_the_radio_star_tab_ver_2.html ]
2--2--0-----0-----3--2--------|---------------2--|---------------2--|-----------
3--3--2-----2-----3--3--3-----|---2--------------|---3--------------|-----------
2--2--2-----2-----0--0--0-----|---2--------2-----|---4--------4-----|-----------
0--0--------------------------|------2-----------|------2-----------|-----------
------4-----4-----2--2--------|---0--------------|---2--------------|-----------
------------------------3-----|---------0--------|---------2--------|-----------

2/3 II             II                            II

-------------2--|---------------2---||--------7---5-----2-----|-----------------
-2--------------|---3---------------||-----0------2-----------|-----------------
-2--------2-----|---4--------4-----*||--0---------2-----------|-----------------
----2-----------|------2-----------*||--0---------------------|-----------------
-0--------------|---2---------------||------------------------|-----------------
-------0--------|---------2---------||--3---------2-----------|-----------------

              (x=strum while muting strings)
0------------------------------|--------7---5-----3-----|-----------------------
0-----3-----0------------------|-----0------2-----------|-----------------------
0-----------2------------------|--0---------2-----------|-----------------------
------------2------x-----x-----|--0---------------------|-----------------------
------------0------------------|------------0-----------|-----------------------
0------------------------------|--3---------------------|-----------------------

II                                             II

-2-----3--5--------|--------7---5-----3-----|---2-----------------|-------------
-2-----------3-----|-----0------2-----------|---2-----3-----------|-------------
-2-----------4-----|--0---------2-----------|---2-----------4-----|-------------
-------------4-----|--0---------------------|---------------4-----|-------------
-------------2-----|------------0-----------|---------------2-----|-------------
-2-----------------|--3---------------------|---2-----------------|-------------

                  II

------0--7-----|------------5-----|-----------3-----|--------------------|------
---0-----------|---------3--------|--------0--------|--5-----7-----3-----|------
0--------------|------2-----------|-----0-----------|--0-----0-----0-----|------
---------------|---4--------------|--2--------------|--7-----9-----5-----|------
---------------|------------------|-----------------|--0-----0-----0-----|------
3--------------|---2--------------|--0--------------|--------------------|------


---------------------|-----5--5-----5-----5--5--|-----7--------------------|----
---7-----3-----5-----|--7-----------------------|--------8-----8-----------|----
---0-----0-----0-----|--------------------------|--0-----------0-----------|----
---9-----5-----7-----|--0-----------0-----------|--------0-----------0-----|----
---0-----0-----0-----|--------0-----------0-----|--------------------------|----
---------------------|--------------------------|--------------------------|----


---5--5-----5-----5--5--|-----7--------------------|----------------------------
7-----------------------|--------8-----8-----------|----------------------------
------------------------|--0-----------0-----------|----------------------------
0-----------0-----------|--------0-----------0-----|----------------------------
------0-----------0-----|--------------------------|----------------------------
------------------------|--------------------------|----------------------------


2--2--0-----0-----3--2--------|--2--2--0-----0-----3--2-----|-------------------
3--3--2-----2-----3--3--3-----|--3--3--2-----2-----3--3--3--|-------------------
2--2--2-----2-----0--0--0-----|--2--2--2-----2-----0--0--0--|-------------------
0--0--------------------------|--0--0-----------------------|-------------------
------4-----4-----2--2--------|--------4-----4-----2--2-----|-------------------
------------------------3-----|--------------------------3--|-------------------


                   alternate ending

---------2-----||------------2-----------5-------------10-------------14--||----
3--------3-----||---------3-----------5------------10-------------15------||----
0--------2-----||------2-----------7-----------11-------------14----------||----
---------0-----||---0-----------0-----------0--------------0--------------||----
---------------||---------------------------------------------------------||----
3--------------||---------------------------------------------------------||----

________________________________________________
Added by Mikhailo (tabteam@ultimate-guitar.com)
________________________________________________
Comments