Buggles - Video Killed The Radio Star Chords & Tabs

 

Video Killed The Radio Star Chords & Tabs

Buggles Chords & Tabs

Version: 2 Type: Bass Tab 0 ratings
1 star 2 stars 3 stars 4 stars 5 stars
comments

Video Killed The Radio Star Bass Tab

THE BUGGLES - "Video Killed the Radio Star" - Bass Tab

Common Time(4/4)
Standard Tuning(EADG)

INTRO:
        (x7)
|-----------|---------|---------|
|*---------*|---------|---------|
|*-r-e-s-t-*|---------|---------|
|-----------|-4-------|---------|
   1 2 3 4    1 2 3 4   1 2 3 4

1ST VERSE:
       (x14)                                  (x2)
|-----------|------------------|------------------|
|*---------*|*-----------------|-----------------*|
|*-r-e-s-t-*|*-----------------|-----------------*|
|-----------|--1-r-1-2-2-r-1-1-|-4-4-2-4-4-4-1-1--|
   1 2 3 4     1 2 & a 3 4 & a   1 & 2 & 3 & 4 &

1ST CHORUS:
                                  (x2)
|------------------|------------------|-----------------|
|*-----------------|-----------------*|-----------------|
|*-4-4-4-4-4-4-4-4-|-----------------*|-4-4-4-4-3-3-3-3-|
|------------------|-2-2-2-2-2-2-2-2--|-----------------|
   1 & 2 & 3 & 4 &   1 & 2 & 3 & 4 &    1 & 2 & 3 & 4 &

|-----------------|-----------------|-----------------|
|-----------------|-----6-----6-----|-----8-----8-----|
|-----------------|-----------------|-----------------|
|-6-6-6-6-6-6-6-6-|-4-4---4-4---4-4-|-6-6---6-6---6-6-|
  1 & 2 & 3 & 4 &   1 & 2 & 3 & 4 &   1 & 2 & 3 & 4 &

2ND VERSE:
                                  (x5)
|------------------|------------------|
|*-----------------|-----------------*|
|*-----------------|-----------------*|
|--1-r-1-2-2-r-1-1-|-4-4-2-4-4-4-1-1--|
   1 2 & a 3 4 & a   1 & 2 & 3 & 4 &

2ND CHORUS:
                                 (x2)
|------------------|------------------|------------------|
|*-----------------|-----------------*|*-----------------|
|*-4-4-4-4-4-4-4-4-|-----------------*|*-4-4-4-4-3-3-3-3-|
|------------------|-2-2-2-2-2-2-2-2--|------------------|
   1 & 2 & 3 & 4 &   1 & 2 & 3 & 4 &     1 & 2 & 3 & 4 &
[ Tab from: http://www.guitartabs.cc/tabs/b/buggles/video_killed_the_radio_star_btab_ver_2.html ]
               (x2)                                  (x2)
|------------------|------------------|------------------|
|-----------------*|*-----6-----6-----|-----8-----8-----*|
|-----------------*|*-----------------|-----------------*|
|-6-6-6-6-6-6-6-6--|--4-4---4-4---4-4-|-6-6---6-6---6-6--|
  1 & 2 & 3 & 4 &     1 & 2 & 3 & 4 &   1 & 2 & 3 & 4 &

INSTRUMENTAL:
|-------------|-----------|-------------|-----------|
|-------------|-----------|-------------|-----------|
|-------------|-----------|-------------|-----------|
|-2---4-----1-|-----2-2---|-2---4-----1-|-----2-2---|
  1 2 & 3 4 &   1 2 & 3 4   1 2 & 3 4 &   1 2 & 3 4

|-------------|-----------|---------|---------|---------|
|-------------|-----------|---------|---------|---------|
|-------------|-----------|-r-e-s-t-|-r-e-s-t-|-r-e-s-t-|
|-2---4-----5-|-----6-----|---------|---------|---------|
  1 2 & 3 4 &   1 2 & 3 4   1 2 3 4   1 2 3 4   1 2 3 4

|-----------------|-----------------|
|-----------------|-----------------|
|-------1-1-1-----|---1-1-1---------|
|-4-4-4-------2-2-|-2-------2-2-4-4-|
  1 & 2 & 3 & 4 &   1 & 2 & 3 & 4 &

END:
                                 (x2)
|------------------|------------------|------------------|
|*-----------------|-----------------*|*-----------------|
|*-4-4-4-4-4-4-4-4-|-----------------*|*-4-4-4-4-3-3-3-3-|
|------------------|-2-2-2-2-2-2-2-2--|------------------|
   1 & 2 & 3 & 4 &   1 & 2 & 3 & 4 &     1 & 2 & 3 & 4 &

               (x3)                                        (x9)
|------------------|-----------------|-------------|-----------|
|-----------------*|-----------------|-------------|*---------*|
|-----------------*|-----------------|-.-.---------|*-r-e-s-t-*|
|-6-6-6-6-6-6-6-6--|-4-4-4-4-4-4-4-4-|-2-2---2-----|-----------|
  1 & 2 & 3 & 4 &    1 & 2 & 3 & 4 &   1 & 2 & 3 4    1 2 3 4

                               (x15 to fade-out)
|---------|------------------|------------------|
|---------|*-----------------|-----------------*|
|-r-r-r-9/|*-4-4-4-4-4-4-4-4-|-----------------*|
|---------|------------------|-2-2-2-2-2-2-2-2--|
  1 2 3 4    1 & 2 & 3 & 4 &   1 & 2 & 3 & 4 &

By: Johari Taylor
E-mail: viking@powerup.com.au
More Bass Tabs: http://www.powerup.com.au/~viking/basstab.htm
Comments