Buena Vista Social Club - Veinte A?得s Chords & Tabs

 

Veinte A?得s Chords & Tabs

Buena Vista Social Club Chords & Tabs

Version: 1 Type: Tab 0 ratings
1 star 2 stars 3 stars 4 stars 5 stars
comments

Veinte A?得s Tab

   
Buena Vista Social Club: Veinte A隳s
------------------------------------
Tabbed by snowball 

I only did the intro so far, if anyone's interested in the rest just mail
me and I'll try to tab out everything. The chords at the end are the only
thing I'm not sure about. If you happen to know the right ones let me know :)

Legend:
-------
/  Slide Up
\  Slide Down             The chords above the tab are only for playing along,
~  Vibrato                they aren't actually played in the song.
() Optional Note

                Em           D           B
e[--7-7-8-7-6-7\12~----15-15-14-14-12-12-11~--]
B[--------------------------------------------]
G[--------------------------------------------]
D[--------------------------------------------]
A[--------------------------------------------]
E[--------------------------------------------]
[ Tab from: http://www.guitartabs.cc/tabs/b/buena_vista_social_club/veinte_aos_tab.html ]
        B7                                  Am/B B7   Em
e[--5-7-8-----------------------------------8----7--5-3--]
B[--------7-8-10-----------------------7-10---------7-5--]
G[---------------8-9-11--------------8--------9--8-------]
D[----------------------(9)-10-9-8-9---------------------]
A[-------------------------------------------------------]
E[-------------------------------------------------------]

                E7                    Am
e[--7-7-8-7-6-7\12~---12-10-7---------------0-5-0-5-7-8--]
B[-------------(12~)----------9---------0-1----------10--]
G[-------------(13~)------------7-5-4-2---------------9--]
D[-------------------------------------------------------]
A[-------------------------------------------------------]
E[-------------------------------------------------------]

    B       Em        G        F#7  B7   Em
e[--5-6-7-5-7---------------7---9---11---12~--]
B[-(4)------------5-7-8-(0)----11---10--------]
G[--------------4---------------9---11--------]
D[--------------------------------------------]
A[--------------------------------------------]
E[--------------------------------------------]
Comments