Budgie - Sky High Percentage Chords & Tabs

 

Sky High Percentage Chords & Tabs

Budgie Chords & Tabs

Version: 2 Type: Bass Tab 0 ratings
1 star 2 stars 3 stars 4 stars 5 stars
comments

Sky High Percentage Bass Tab

Budgie 
Sky High Percentage
Bass

 Intro		      		1-time fill
G|---------------------------|----------------|------------------|-------------|
D|---------------------------|--6^4-----------|------------------|-------------|
A|---------------------------|-----6-4-6------|------------------|-------44-66-|
E|--4-4-4-4-4-4-4-4-4.....---|-----------7-4--|--4-4-4-4-4-4...--|-44-77-------|

[ Tab from: http://www.guitartabs.cc/tabs/b/budgie/sky_high_percentage_btab_ver_2.html ]
 Verse
G|-----------------------------------------------|-----------------|
D|-----------------------------------------------|-----------------|
A|--6-6-6-6-6-6-6-6-6-6-6-6-6-6-6-6-6-6-4-6------|-----------------|
E|-----------------------------------------------|--7--6--7--6--4--|


 Chorus			   1-time fill
G|------------------------|---------------|
D|------------------------|-666666666666--|
A|------------------------|---------------|
E|--4---4----1--2-3-x--4--|---------------|


This song is cool! 
Disclaimer: This tab is just a rough estimate.  Not exact on the timing or numbers, 
yet should give you a pretty good idea of what's going on.  Any questions, feel 
free to contact me at my new address Roastbeefalo@home.com.  Thanks.
Comments