Budgie - In For The Kill Chords & Tabs

 

In For The Kill Chords & Tabs

Budgie Chords & Tabs

Version: 1 Type: Tab 0 ratings
1 star 2 stars 3 stars 4 stars 5 stars
comments

In For The Kill Tab

Budgie - In For The Kill

Tuning: Standart
Mail: degot88@gmail.com


Intro

e|---20^(hold)---------------------------------|
B|---------------------------------------------|
G|---------------------------------------------|
D|-----------------7h9p7-7^(hold)--------------|
A|----------------------9--------------4-------|
E|-------------------------------------2-------|

e|---------------------------------------------|
B|---------------------------------------------|
G|---------------------------------------------|
D|---10^^(hold)----7h9p7-7^(hold)--------------|
A|----------------------9--------------4-4-----|
E|-------------------------------------2-2-----| x2


Main riff

e|----------------------------------------------------------------------------|
B|-----------------------------------------2--2--4^-4-2-2---2--2--4^-4-2------|
G|-----------------------------------------2--2--4^-4-2-2---2--2--4^-4-2------|
D|----------------------------------------4--4-------------4--4---------4~\---|
A|----------------------------------------------------------------------------|
E|---2-2----2-0-2-2----0-1-2-2----2-0-2---------------------------------------|


Riff 2
       |------repeat-------|
e|------------------------------|
B|------------------------------|
G|------------------------------|
D|---------------------0-1-2----|
A|-------0-1-2-2---0-2----------|
E|---0-2------------------------|


and then back to main riff...
[ Tab from: http://www.guitartabs.cc/tabs/b/budgie/in_for_the_kill_tab.html ]
e|------------------------------------------------------|
B|------------------------------------------------------|
G|------------------------------------------------------|
D|------------------------------------------------------|
A|--0-2-0-----------------------------------------------|
E|---------2-2----2-0-2-2----0-1-2-2----2-0-2--...------|


Riff 3

e|---------------------------------------------------------------|
B|------x4h666\-------x2h444\-------x0h222\----------------------|
G|------x4h666\-------x2h444\-------x0h222\----------------------|
D|----------------------------------------------99-9\------------|
A|--6-6-----------4-4-----------2-2-------------77-7\---99--11\--|
E|--4-4-----------2-2-----------0-0---------------------77--9-\--| x2

Riff 4

4.1
e|----------------------------|
B|-------4~--2~---------------|
G|-------4~--2~---------------|
D|----------------------------|
A|--4-4---------2h4-----2-1~--|
E|--2-2--------------2h4------|x4


4.2        |-------repeat x4-------|
e|-------------------------------------------------------|
B|---------------6~--4~----------------------------------|
G|---------------6~--4~----------------------------------|
D|-------------------------------------------------------|
A|-9\-2-----6-6---------4h6-----4-3~-----9\-2--444--666--|
E|-7\-0-----4-4--------------4h6---------7\-0--222--444--|

then back to 4.1



Solo


e|----------------------------------------------------------------------|
B|--2--2----------------------------------2--2--------------------------|
G|--4^^4^^----2-4-4^^4-2~\----4+^4--2+4+--4^^4^^---2-4^^(pick)----------|
D|----------4----------------------4--------------4-------------...-----|
A|--------------------------------------------------------------...-----|
E|----------------------------------------------------------------------|

the same idea then continues on 4-6 frets (follow the chords).



then back to Riffs 3 and 4 and ends with Main Riff
Comments