Buddy Holly - Heart Beat Chords & Tabs

 

Heart Beat Chords & Tabs

Buddy Holly Chords & Tabs

Version: 1 Type: Tab 0 ratings
1 star 2 stars 3 stars 4 stars 5 stars
comments

Heart Beat Tab

okay, well this is my first tab..so be nice. this is what i got off of watching
the show heart beat so it might not be the whole song. anyway hope it works.

Intro
---------------------
---------------------
-4-4-4-5-4-2-2-2-4-2-
---------------------   
---------------------
---------------------

Verse
-------------------------------
-------------------------------
-0-0-0-2-4-5-5-0---0-2---0-----
-----------------4-----4------- 
-------------------------------
-------------------------------
[ Tab from: http://www.guitartabs.cc/tabs/b/buddy_holly/heart_beat_tab.html ]
Ending
----------------------------------------------
--------------------------------------------5-
-4-4-4-5-4-2-2-2-4-2---4-4-4-5-4-2-2-2-4-2--4-
----------------------------------------------
----------------------------------------------
----------------------------------------------



Order:
Intro 2x
Verse 1x
Intro 1x
Verse 1x
Intro 1x
Verse 1x
Intro 1x
Verse 1x
Ending 1x
Heartbeat why do you miss when my baby kisses me?
Heartbeat why does a love kiss stay in my memory?
Heartbeat why do you miss when my baby kisses me?
Heartbeat why do you miss when my baby kisses me?

i really hope thats right. e-mail me with any problems
friggin_insane@hotmail.com
Comments