Buddy Guy - Everyday Chords & Tabs

 

Everyday Chords & Tabs

Buddy Guy Chords & Tabs

Version: 1 Type: Tab 0 ratings
1 star 2 stars 3 stars 4 stars 5 stars
comments

Everyday Tab

Everyday (I have the blues) (solo)                        
Buddy Guy


Tabed By: ??? 

                                                                           
E||----11--|--8------------------|----11--8--10------8--------------------|
B||----11--|--8--10--------------|---------------10-----11--8------8------|
G||--------|---------------------|-----------------------------11-----10--|
D||--------|---------------------|----------------------------------------|
A||--------|---------------------|----------------------------------------|
E||--------|---------------------|----------------------------------------|


                                                                  
-------------------------|--8--11--8-----------------------------|
-------------------------|--8-------------8----------------------|
--9----------------------|------------10b----10--9------9--10b---|
-----10------------------|--------------------------10-----------|
---------10--------------|---------------------------------------|
-------------------------|---------------------------------------|


                                                                             
-----------------------|-----------------------------|------------------11\-|
-----------------------|---------------8-------------|--8--8----------------|
--10r-8----------------|--------8--10-----8----------|--8--9----------------|
---------10~-----------|----10--------------10~------|----------------------|
-----------------------|-----------------------------|----------------------|
-----------------------|-----------------------------|----------------------|


                                                            
--10p-8------8----------------------|--10------------------|
---------10--8----8--------------8--|------10~-------------|
-----------------------10----8h9----|----------------------|
------------------------------------|----------------------|
------------------------------------|----------------------|
------------------------------------|----------------------|


                                                                             
----------------------------|--------------------|--------------------------|
------------13~-----15--15b-|----------------13~-|------------------13--13~-|
------12/14-----------------|--------------------|------14------14----------|
----------------------------|--------------------|--------------------------|
----------------------------|--------------------|--------------------------|
----------------------------|--------------------|--------------------------|


                                                                               
----------------------|----15b-------13b-13--12------|------------------------|
------15--15b---------|--------------------------13--|--13~---13----------15b-|
----------------------|------------------------------|--------14--------------|
----------------------|------------------------------|------------------------|
----------------------|------------------------------|------------------------|
----------------------|------------------------------|------------------------|


                                                  
--------13b-----13------|------------------------|
--------------------15b-|--13~-----------13--15r-|
------------------------|------------------------|
------------------------|------------------------|
------------------------|------------------------|
------------------------|------------------------|


                                                   
------------------------------|----------------8--|
--------13------13----15--15b-|----------------8--|
------------14----------------|-------------------|
------------------------------|-------------------|
------------------------------|-------------------|
------------------------------|-------------------|


                                                     
------------------------8--10--|--10b---------------|
----8------------8--10---------|--------------------|
-------10--8h9-----------------|--------------------|
-------------------------------|--------------------|
-------------------------------|--------------------|
-------------------------------|--------------------|


                                                                                
----10r---8----8------------|-------------------------|------------------------|
------------10-8----10------|----8-----------------8\-|------------13--13--13~-|
--------------------10------|--8h9-----------------9\-|------------------------|
------------------------10--|------10--10~------------|------------------------|
----------------------------|-------------------------|------------------------|
----------------------------|-------------------------|------------------------|


                                                                     
--------11b-----13b---|------------------|--13--11------------11b---|
----------------------|------------------|----------13~-------------|
----------------------|------------------|--------------------------|
----------------------|------------------|--------------------------|
----------------------|------------------|--------------------------|
----------------------|------------------|--------------------------|


                                                                         
--13--12--------11b-13------|--------13r---------|----11----------------|
----------13~---------------|--------------------|--------13~-----------|
----------------------------|--------------------|----------------------|
----------------------------|--------------------|----------------------|
----------------------------|--------------------|----------------------|
----------------------------|--------------------|----------------------|

[ Tab from: http://www.guitartabs.cc/tabs/b/buddy_guy/everyday_tab.html ]
                                                      
--11----13--15----13b-----|--------13r---11--13--11/-|
--11----------------------|--------------------------|
--------------------------|--------------------------|
--------------------------|--------------------------|
--------------------------|--------------------------|
--------------------------|--------------------------|


                                                              
--12--13--13----13p-12--13p-12--|--13--13b---11b-----13--11--|
--------------------------------|----------------------------|
--------------------------------|----------------------------|
--------------------------------|----------------------------|
--------------------------------|----------------------------|
--------------------------------|----------------------------|


                                                                         
----11----------------|----------------------|--------------------------|
--------13~-----------|------13~---------13~-|------13~-13~---13~-13~---|
----------------------|----------------------|--------------------------|
----------------------|----------------------|--------------------------|
----------------------|----------------------|--------------------------|
----------------------|----------------------|--------------------------|


                                                                               
--13b-13b-13b---------13b-|----11--------11b-------|--13b-13b-13b---------13b-|
--------------------------|--------13~-------------|--------------------------|
--------------------------|------------------------|--------------------------|
--------------------------|------------------------|--------------------------|
--------------------------|------------------------|--------------------------|
--------------------------|------------------------|--------------------------|


                                                                           
--------11r---------|----------------------------|------------------------|
--------------------|--13~---------8-------------|--8---------------------|
--------------------|-----------------10p-8h-10--|-----8------------------|
--------------------|----------------------------|--------10~-------10----|
--------------------|----------------------------|------------------------|
--------------------|----------------------------|------------------------|


                                                       
------------------8---|------------------------8--10--|
------------------10--|----8------------8--10---------|
--8--9------------9---|----9--10--8--9----------------|
----------------------|-------10----------------------|
----------------------|-------------------------------|
----------------------|-------------------------------|


                                                               
--10b-8-------------------|--------------8--------------------|
---------8----------8--8--|--12--13~-----8--11--8-------------|
------------10~-----------|------------------------10--8--10--|
--------------------------|-----------------------------------|
--------------------------|-----------------------------------|
--------------------------|-----------------------------------|


                                                   
---------------------------|----------------------|
-------------------------8-|----------------------|
--8----------8h9---10--8h9-|----------------------|
-----10~-------------------|------10--------------|
---------------------------|----------10----------|
---------------------------|----------------------|


                                            
-------------------------------------------|
-----8-11-8----8-11-8----8-11-8----8----11-|
--10b-------10b-------10b-------10b--10b---|
-------------------------------------------|
-------------------------------------------|
-------------------------------------------|


                                            
-------------------------------------------|
-----8-11-8----8-11-8----8-11-8----8----11-|
--10b-------10b-------10b-------10b--10b---|
-------------------------------------------|
-------------------------------------------|
-------------------------------------------|


                                            
-------------------------------------------|
-----8-11-8----8-11-8----8-11-8----8----11-|
--10b-------10b-------10b-------10b--10b---|
-------------------------------------------|
-------------------------------------------|
-------------------------------------------|


                                                                               
-------------------------------------------|--11b---11-8----8-----------------|
-----8-11-8----8-11-8----8-11-8----8----11-|-------------10-------------------|
--10b-------10b-------10b-------10b--10b---|------------------10-8----8-10b---|
-------------------------------------------|-----------------------10---------|
-------------------------------------------|----------------------------------|
-------------------------------------------|----------------------------------|


                                                                              
--------------------------|-------------------------------|------------------|
--------------------------|-------------------------------|------------------|
--------------10b---10b---|--10----9----8----10b-8--------|------------------|
--------------------------|-------------------------10~---|------------------|
--------------------------|-------------------------------|------------------|
--------------------------|-------------------------------|------------------|


                                                                            
------------------------|---------8--------------|-------------------8-----|
-----------8~-----------|------8-------8---------|-------------------8--8\-|
--8----8/9--------10----|-----------------10--8--|--9-------------------9\-|
------------------------|------------------------|-----10--10~-------------|
------------------------|------------------------|-------------------------|
------------------------|------------------------|-------------------------|


------------------||
------------------||
------------------||
------------------||
------------------||
------------------||
Comments