Buckethead - Welcome To Buckethead Land Chords & Tabs

 

Welcome To Buckethead Land Chords & Tabs

Buckethead Chords & Tabs

Version: 3 Type: Tab 0 ratings
1 star 2 stars 3 stars 4 stars 5 stars
comments

Welcome To Buckethead Land Tab

tabbed by Jason Dewaele

e---------------------------------------------------------------------------|
b---------------------------------------------------------------------------|
G---------------------------------------------------------------------------|
D------------------------0-0------------------------------------------------|
A---------10p710p79p79p75-5---4-5-------------------------------------------|
E-10p710p7------------------2-----3~~---------------------------------------|

(slight palm mute on this part)
e---------------------------------------------------------------------------|
b---------------------------------------------------------------------------|
G---------------------------------------------------------------------------|
D------------------0-0------------------------------------------------------|
A-------10710797975-5---4-5-------------------------------------------------|
E-107107--------------2-----3~~---------------------------------------------|
[ Tab from: http://www.guitartabs.cc/tabs/b/buckethead/welcome_to_buckethead_land_tab_ver_3.html ]
e-------------------------------------------------------4p2p0----------------|
b------------------------------------------------------------4p2p0-----------|
G-----------------------------------------------------------------4p2p0------|
D---------------------------------------------------5-5----------------4p2p0-|
A-----4---5---4~~------4-5---7---5------4---5---4~~-5-5----------------------|
E-2-2---2---2------3-3-----33--33---2-2---2---2-----3-3----------------------|

e---------------------------------------------------------------------------|
b---------------------------------12-1212121212~-12/14-14-1414141414~-14/15-|
G---------------------------------------------------------------------------|
D-4------4----5-5-----------------------------------------------------------|
A-4-x----4-x--5-5-----------------------------------------------------------|
E-2-x-0--2-x--3-3-0--2~-----------------------------------------------------|

e---------------------------------------------------------------------------|
b15-1515151515-15/20-20~~-19~~-17~~-----------------------------------------|
G---------------------------------------------------------------------------|
D---------------------------------------------------------------------------|
A---------------------------------------------------------------------------|
E---------------------------------------------------------------------------|
Comments