Buckethead - We Are One Chords & Tabs

 

We Are One Chords & Tabs

Buckethead Chords & Tabs

Version: 1 Type: Tab

We Are One Tab

ok this isnt just the into but its the best i got.
tuning:drop D

theres the intro through all the stuff you cant understand.
e-----------------------------------------------------|
b-----------------------------------------------------|
g-----------------------------------------------------|
d0-0-0-1-0-0-0----0-0-0-1-0-0-0-0-0-1-0-0-0-----------|
a0-0-0-1-0-0-0----0-0-0-1-0-0-0-0-0-1-0-0-0-----------|
d0-0-0-1-0-0-0----0-0-0-1-0-0-0-0-0-1-0-0-0-----------|
 ........................pm................
[ Tab from: http://www.guitartabs.cc/tabs/b/buckethead/we_are_one_tab.html ]
e-----------------------------------------------------|
b-----------------------------------------------------|
g-----------------------------------------------------|
d--7---3---5--------5---3---0-------------------------|
a--7---3---5--------5---3---0-------------------------|
d--7---3---5--------5---3---0-------------------------|

this part plays though the whole song

heres a slight jump, it comes after the weird high part when serj dose the little kid 
with his voice.


e-----------------------------------------------------|
b-----------------------------------------------------|
g-----------------------------------------------------|
d-----------------------------------------------------|
a-------------------------------------------44-33-----|
d-88-33-88-33-66-33-66-33-44-33-44-33-44-33-----------|
that just keeps playing well there you go when i figure ould more ill put it up

any comments or questions e-mail me at erique@gmail.com