Buckethead - Nun Chuka Kata Chords & Tabs

 

Nun Chuka Kata Chords & Tabs

Buckethead Chords & Tabs

Version: 1 Type: Tab 0 ratings
1 star 2 stars 3 stars 4 stars 5 stars
comments

Nun Chuka Kata Tab

   
intro
|----------------------------------------|
|----------------------------------------|
|----------------------------------------|
|---5---5-5---5---5-5---5---5-5---5------|
|-------------------------------------6~-|
|-3---3-----3---3-----3---3-----3---3----|

intro continued
|--------------------------------------------------------|
|--------------------------------------------------------|
|--------------------------------------------------------|
|---5---5-5---5---5-5---5---5-5--8-7-5-8-7-5-8-7-5-8-7-5-|
|--------------------------------------------------------|
|-3---3-----3---3-----3---3------------------------------|
. . . . . . . . . . . . Those are light palm mutes

the rest of the intro does a few variations on that stuff
and now, the cool part...all of this is lightly palm muted...
it's hard to tell how many times he's picking each note, so I just wrote each note once
listen to the song for the changes and speed

0:25 - 0:38
|----------------------------------|------------------------------------------|
|----------------------------------|------------------------------------------|
|----------------------------------|------------------------------------------|
|-12---15---13---10---13---12------|-12---15---13---10---13---12---15---17///-|
|-------------------------------13-|------------------------------------------|
|----------------------------------|------------------------------------------|


0:45 play this x 2
|----------------------------------|
|----------------------------------|
|----------------------------------|
|-12---15---13---10---13---12------|
|-------------------------------13-|
|----------------------------------|

0:57 - 1:03
|-------------------|----------------------------------------|
|-------------------|----------------------------------------|
|-------------------|----------------------------------------|
|-5-5---5-5---5-5---|-12---7---8---10---12---10---12---8---7-|
|-5-5---5-5---5-5---|----------------------------------------|
|-3-3---3-3---3-3---|----------------------------------------|

cont'd
|-------------------------------------|
|-------------------------------------|
|-------------------------------------|
|-12---15---13---10---12---10---8---7-|
|-------------------------------------|
|-------------------------------------|

1:15
|-----------------------------------------------------------------------|
|-----------------------------------------------------------------------|
|-----------------------------------------------------------------------|
|-12---10---13---12---8---10---7---8---12---15---13---10---13---12------|
|--------------------------------------------------------------------13-|
|-----------------------------------------------------------------------|
[ Tab from: http://www.guitartabs.cc/tabs/b/buckethead/nun_chuka_kata_tab.html ]
1:28 - 1:34
|-----------------|-----------------------------------------------|
|-----------------|-----------------------------------------------|
|-----------------|-----------------------------------------------|
|-5-5---5-5---5-5-|-12---8---10---12------------------------------|
|-5-5---5-5---5-5-|--------------------10---13---15---12---8---10-|
|-3-3---3-3---3-3-|-----------------------------------------------|

1:46
|--------------------------------------------------------|
|--------------------------------------------------------|
|-12-----------------------------------------------------|
|------12---15---13---10---13-12--13-10--12-8--8-7--5--5-|
|--------------------------------------------------------|
|--------------------------------------------------------|

1:58 - 2:05
|-----------------------|---------------------------------------|
|-----------------------|---------------------------------------|
|-----------------------|---------------------------------------|
|-5-5---5-5---5-5---5-5-|-12---8---10---12----------------------|
|-5-5---5-5---5-5---5-5-|--------------------10----12--8--3--5--|
|-3-3---3-3---3-3---3-3-|---------------------------------------|

2:17
|------------------------------------------------------|
|------------------------------------------------------|
|------------------------------------------------------|
|-12---15---13---10---13---12---8---8---10---7---8---5-|
|------------------------------------------------------|
|------------------------------------------------------|

2:29
|---------------------------------------------------------|
|---------------------------------------------------------|
|-12------------------------------------------------------|
|------12---15---13---10---13---12---10-8---7---5-5---5-5-|
|-----------------------------------------------5-5---5-5-|
|-----------------------------------------------3-3---3-3-|

2:42 - 2:50
|-----------|
|-----------|
|-----------|
|-5-5---5-5-|
|-5-5---5-5-|
|-3-3---3-3-|

2:51 - solo
|-------------------------------------------------|
|-------------------------------------------------|
|-------------------------------------------------|
|-12---10---8---10---12---10---8---7---to solo!!!-|
|-------------------------------------------------|
|-------------------------------------------------|

3:21 to 3:50
|-----------------------------0-----------------|
|-----------------------------------------------|
|-5---5---x-5---5/6/5---------6/5---------------|
|-4---4---x-4-----------------------------------|
|-3---3---x-3-----------------------------------|
|-2---2---x-2-----------------------------------|

that's it...solo is nutso, so I didn't even bother attempting to tab it
listen to the song for speed, changes, etc.
don't forget light palm muting over the melodic lines
Comments