Buckethead - Hook And Pole Gang Chords & Tabs

 

Hook And Pole Gang Chords & Tabs

Buckethead Chords & Tabs

Version: 1 Type: Tab 0 ratings
1 star 2 stars 3 stars 4 stars 5 stars
comments

Hook And Pole Gang Tab

Hook & Pole Gang by Buckethead 
from Bucketheadland 
Avant Records 1992 

Transcription by Martin Wong (martin7218@earthlink.net) 

Section 1: 
E---------------------------------------------------------------------- 
B---------------------------------------------------------------------- 
G---------------------------------------------------------------------- 
D-5--5--5--5-5-3----5--5--5--5-5-3----5--5--5--5-5-3----5--5--5--5-5-3- 
A-3--3--3--3-3-1----3--3--3--3-3-1----3--3--3--3-3-1----3--3--3--3-3-1- 
E---------------------------------------------------------------------- 

E---------------------------------------------------------------------- 
B---------------------------------------------------------------------- 
G---------------------------------------------------------------------- 
D---------------------------------------------------------------------- 
A-------4tr5--3tr4--------------------4tr5--5tr6----------------------- 
E-2tr3--------------4tr5--5tr6---2tr3-------------5tr6--4tr5----------- 

E---------------------------------------------------------------------- 
B---------------------------------------------------------------------- 
G---------------------------------------------------------------------- 
D---------------------------------------------------------------------- 
A-------4tr5--3tr4----------------------4tr5--5tr6--------------------- 
E-2tr3--------------4tr5--5tr6-----2tr3-------------s//---------------- 

Section 2: 
E---------------------------------------------------------------------- 
B---------------------------------------------------------------------- 
G---------------------------------------------------------------------- 
D-5--5--5--5-5-3----5--5--5--5-5-3----5--5--5--5-5-3----5--5--5--5-5-3- 
A-3--3--3--3-3-1----3--3--3--3-3-1----3--3--3--3-3-1----3--3--3--3-3-1- 
E---------------------------------------------------------------------- 

E---------------------------------------------------------------------- 
B---------------------------------------------------------------------- 
G---------------------------------------------------------------------- 
D---------------------------------------------------------------------- 
A-------4tr5--3tr4----------------------4tr5--5tr6--------------------- 
E-2tr3--------------4tr5--5tr6-----2tr3-------------5tr6--4tr5--------- 

E---------------------------------------------------------------------- 
B---------------------------------------------------------------------- 
G---------------------------------------------------------------------- 
D---------------------------------------------------------------------- 
A-------4tr5--3tr4----------------------4tr5--5tr6--------------------- 
E-2tr3--------------4tr5--5tr6-----2tr3-------------s//---------------- 

Section 3: 
E---------------------------------------------------------------------- 
B---------------------------------------------------------------------- 
G---------------------------------------------------------------------- 
D-5--5--5--5-5-3----5--5--5--5-5-3----5--5--5--5-5-3----5--5--5--5-5-3- 
A-3--3--3--3-3-1----3--3--3--3-3-1----3--3--3--3-3-1----3--3--3--3-3-1- 
E---------------------------------------------------------------------- 

With Background Rhythm: 

E-8h9p8h9p8p7------------------8h9p8h9p8p7----------------------------- 
B-------------10p9p8p7h8h9h10---------------10p9p8p7h8h9h10------------ 
G---------------------------------------------------------------------- 
D---------------------------------------------------------------------- 
A---------------------------------------------------------------------- 
E---------------------------------------------------------------------- 
[ Tab from: http://www.guitartabs.cc/tabs/b/buckethead/hook_and_pole_gang_tab.html ]
E-8h9p8h9p8p7------------------8h9p8h9p8p7----------------------------- 
B-------------10p9p8p7h8h9h10---------------10p9p8p7h8h9h10------------ 
G---------------------------------------------------------------------- 
D---------------------------------------------------------------------- 
A---------------------------------------------------------------------- 
E---------------------------------------------------------------------- 

E-8h9p8h9p8p7------------------8h9p8h9p8p7----------------------------- 
B-------------10p9p8p7h8h9h10---------------10p9p8p7h8h9h10------------ 
G---------------------------------------------------------------------- 
D---------------------------------------------------------------------- 
A---------------------------------------------------------------------- 
E---------------------------------------------------------------------- 

E-8h9p8h9p8p7------------------8h9p8h9p8p7----------------------------- 
B-------------10p9p8p7h8h9h10---------------10p9p8p7h8h9h10------------ 
G---------------------------------------------------------------------- 
D---------------------------------------------------------------------- 
A---------------------------------------------------------------------- 
E---------------------------------------------------------------------- 

E-8h9p8h9p8p7------------------8h9p8h9p8p7----------------------------- 
B-------------10p9p8p7h8h9h10---------------10p9p8p7h8h9h10------------ 
G---------------------------------------------------------------------- 
D---------------------------------------------------------------------- 
A---------------------------------------------------------------------- 
E---------------------------------------------------------------------- 

E-8h9p8h9p8p7------------------8h9p8h9p8p7----------------------------- 
B-------------10p9p8p7h8h9h10---------------10p9p8p7h8h9h10------------ 
G---------------------------------------------------------------------- 
D---------------------------------------------------------------------- 
A---------------------------------------------------------------------- 
E---------------------------------------------------------------------- 

E-8h9p8h9p8p7------------------8h9p8h9p8p7----------------------------- 
B-------------10p9p8p7h8h9h10---------------10p9p8p7h8h9h10------------ 
G---------------------------------------------------------------------- 
D---------------------------------------------------------------------- 
A---------------------------------------------------------------------- 
E---------------------------------------------------------------------- 

E-8h9p8h9p8p7---------------------------------------------------------- 
B-------------10p9p8p7h8h9h10------------------------------------------ 
G---------------------------------------------------------------------- 
D---------------------------------------------------------------------- 
A------------------------------s\\------------------------------------- 
E------------------------------s\\------------------------------------- 

Background Rhythm: 
E---------------------------------------------------------------------- 
B---------------------------------------------------------------------- 
G-5--------5-------------5--------5------------------------------------ 
D-5--4-----5--4----------5--4-----5--4--------------------------------- 
A-3--4-----3--4----------3--4-----3--4--------------------------------- 
E----2--------2--s//--------2--------2--//s22b~------------------------ 

Section 4: 
E---------------------------------------------------------------------- 
B---------------------------------------------------------------------- 
G---------------------------------------------------------------------- 
D-5--5--5--5-5-3------5--5--5--5-5-3-----5--5--5--5-5-3-----5---------- 
A-3--3--3--3-3-1------3--3--3--3-3-1-----3--3--3--3-3-1-----3---------- 
E---------------------------------------------------------------------- 




Comments