Buckcherry - Porno Star Chords & Tabs

 

Porno Star Chords & Tabs

Buckcherry Chords & Tabs

Version: 1 Type: Tab 0 ratings
1 star 2 stars 3 stars 4 stars 5 stars
comments

Porno Star Tab

   
====================================================
     Artist : Buck Cherry
  Song Name : Porno Star
 Album Name : Time Bomb
  Tabbed By : Devin Legge >> devlegge@hotmail.com
====================================================


This is all the riffs used throughout the song 'Porno Star' by Buckcherry. Not included is the solo, if anyone knows it post it, that would be great. Thanks alot!


 intro/verse
[-------------------------
[-------------------------
[-------------------------
[-------------------------
[--3---3-5--3---3-5-3-----
[----5--------5-------5-5-


 verse
[-----------------------------------
[-----------------------------------
[--7--7-7\------------2-5-7--7-7\---
[--7--7-7\------------2-5-7--7-7\---
[--5--5-5\------------0-3-5--5-5\---
[-----------------------------------

[ Tab from: http://www.guitartabs.cc/tabs/b/buckcherry/porno_star_tab.html ]
 pre-course
[--------------
[--------------
[--5-------7---
[--5-------7---
[--3-------5---
[--------------


 course
[---------------------------------------------------------------------
[---------------------------------------------------------------------
[--5-5-5-5-5-5-5-5--7-7-7-7-7-7-7-7--2-2-2-2-2-2-2-2-2-2-2-2-2-2-2-2--
[--5-5-5-5-5-5-5-5--7-7-7-7-7-7-7-7--2-2-2-2-2-2-2-2-2-2-2-2-2-2-2-2--
[--3-3-3-3-3-3-3-3--5-5-5-5-5-5-5-5--0-0-0-0-0-0-0-0-0-0-0-0-0-0-0-0--
[---------------------------------------------------------------------



 course fill
[-------------------
[--2h3p2---3-3-3----
[--------3----------
[-------------------
[-------------------
[-------------------



====================
 / : slide up
 \ : slide down
 b : bend
 r : release bend
 h : hammer on
 p : pull off
 + : hold
 ^ : mute
 t : tap
 ~ : vibrato
 x : dead string
====================
Comments