Buckcherry - Lit Up Chords & Tabs

 

Lit Up Chords & Tabs

Buckcherry Chords & Tabs

Version: 2 Type: Tab 1 rating
1 star 2 stars 3 stars 4 stars 5 stars
comments

Lit Up Tab

BUCKCHERRY 
LIT UP
TABBED BY CHRIS  (  CHRISRCLOVE@HOTMAIL.COM   )

OPEN G TUNNING   (TONE BOTH E's AND A 1 STEP DOWN)

INTRO  AND VERSE
D--------------------------------------------------------------
B-5-0---0---0--5--0---0--5--6-6--6--5--6--5--5--6--5--6--0-----
G-5-0---0---0--5--0---0--5--5-5--5--5--5--5--5--5--5--5--0-----
D-5-0---0---0--5--0---0--5--7-7--7--5--7--5--5--7--5--7--0-----
G-5-0---0---0--5--0---0--5--5-5--5--5--5--5--5--5--5--5--0-----
D--------------------------------------------------------------

YOU WANNA FIND IT COME ON YEAH IM ON A PLANE WHITH COCANIE
AND YES IM ALL LIT UP AGIAN CUP OF LOVE AND IM TOUCHEN YOUR
MOMMAA SAID PACKEN LINES A SIN 
[ Tab from: http://www.guitartabs.cc/tabs/b/buckcherry/lit_up_tab_ver_2.html ]
CHORES    W/SLIDE
D-----------------------------------------------------------
B--/8---8\3- 3--3--3\10--10--10\5--5--5--5--5--5\8--8\3-----
G--/8---8\3--3--3--3\10--10--10\5--5--5--5--5--5\8--8\3-----
D--/8---8\3--3--3--3\10--10--10\5--5--5--5--5--5\8--8\3-----
G--/8---8\3--3--3--3\10--10--10\5--5--5--5--5--5\8--8\3-----
D-----------------------------------------------------------

AND YES IM ALL LIT UP AGIAN ON THE COUCH IN MY BED AND YES IM ALL LIT
UP
AGIAN FLYIN 

BRIDGE 

D---------------------------------------------------
B-0-5-0-5-0-0-5-0-0-0-10-10--10\5-0--3--0--3--0--0--                 
G-0-5-0-5-0-0-5-0-0-0-10-10--10\5-0--3--0--3--0--0--  
D-0-5-0-5-0-0-5-0-0-0-10-10--10\5-0--3--0--3--0--0--
G-0-5-0-5-0-0-5-0-0-0-10-10--10\5-0--3--0--3--0--0--
D---------------------------------------------------

I LOVE THE COCANE I LOVE THE COCANE MAMA CAN YOU WAIT MAMA CAN YOU WAIT

I GOT THE WHOLE SOLO BUT IT REAL LONG AND IM REAL TIRED SO IF YOU NEED
IT E ME AND ILL SEND IT
CHRISRCLOVE@HOTMAIL.COM
Comments