Buckcherry - Lit Up Chords & Tabs

 

Lit Up Chords & Tabs

Buckcherry Chords & Tabs

Version: 2 Type: Bass Tab 0 ratings
1 star 2 stars 3 stars 4 stars 5 stars
comments

Lit Up Bass Tab

BTAB: Lit Up
GROUP: Buckcherry
AUTHOR: Baz Raju (bazbass@hotmail.com)
COMMENTS: Two basic riffs one for the verse and for the chorus.

*-=taken from bass bass tab archive HTTP://WWW.EISA.NET.AU/~RAJU/=-*



verse

G|--------------------------------------------|
D|--------------------------------------------|
A|-------------------------------3-3-x-3-3-5--|
E|-3-3-3-3-x-3-3-3-3-x-1-1-x-1-x--------------|

chorus
[ Tab from: http://www.guitartabs.cc/tabs/b/buckcherry/lit_up_btab_ver_2.html ]
G|-------------------------------------------------|
D|-------------------------------------------------|
A|-6-6-x-------8--8----------6-6-x-----------------|
E|-------6-6-x---------8--8--------6-6/-3-3-3-3-3--|

G|--------------------------------------------|
D|--------------------------------------------|
A|----------8--8--x-3-3-x---------------------|
E|3-3-3-3-3---------------1-1-x-3-------------|

bridge

G|--------------------------------------------|
D|--------------------------------------------|
A|--------------------333333333-7777777777----|
E|-33333333-111111111-------------------------|
Comments