Buckcherry - For The Movies Chords & Tabs

 

For The Movies Chords & Tabs

Buckcherry Chords & Tabs

Version: 2 Type: Tab 0 ratings
1 star 2 stars 3 stars 4 stars 5 stars
comments

For The Movies Tab

   
[Intro/verse riff - slight delay effect]
[Play riff three times total before the bridge]
  |-5--5h7p5------|-----------4----|-----2--2--0-------|-----5----7----|
  |-5--5-----5----|---------5------|-------------3-----|---6-----------|
  |-6--------6----|-------6--------|--2------------2p0-|---------------|
  |-7----------7\-|-----6----------|0------------------|-5-------------|
  |---------------|-3/4------------|-------------------|---------------|
  |-5-------------|----------------|-------------------|---------------|

[VERSE above]
Do you remember all our love?
Did you get back from what you gave?
I see some symptoms of
A past that you forgave
You never were extendable
You always made me feel alive
And now we're in the middle of 
Transition of our lives


A5		Bm7			A/C#
A change of pace could really do some good  *She's leaving*

A5		Bm7			A/C#
And if she caves then you're bringing back the show  *I'm leaving*
Yeah Yeah


A5	E
Wake up, and see the places

Dsus2	E
All you've got and all you take

A5	E
You don't have to fall to pieces

Dsus2
You have to prove it

A5	E
Make up, your pretty faces

Dsus2	E
It's a lovely trip a lovely place

A5	E
You've got one life here to make it for the movies (Yeah)


[VERSE above]
Do you feel singled Out
Do you feel less than all the rest
You know it's interchangeablle,
The spotlight and the pain
I wanna get on top of this
I wanna build hat trust again
And if I give it all I've got
I'm sure you'll do the same

A5		Bm7			A/C#
A change of pace could really do some good  *She's leaving*

A5		Bm7			A/C#
And if she caves then you're bringing back the show  *I'm leaving*
Yeah Yeah


A5	E
Wake up, and see the places

Dsus2	E
All you've got and all you take

A5	E
You don't have to fall to pieces

Dsus2
You have to prove it

A5	E
Make up, your pretty faces

Dsus2	E
It's a lovely trip a lovely place

A5	E
You've got one life here to make it for the movies (Yeah)

[VERSE above]
I cannot face the fear in this
I see a place for you and I 
Where we can make the most of this
'Cause our passions never die
And if you don't believe in me
I'll choose a path and change your mind
And you can take me to your room
Wherever you may hide
[ Tab from: http://www.guitartabs.cc/tabs/b/buckcherry/for_the_movies_tab_ver_2.html ]
A5		Bm7			A/C#
A change of pace could really do some good  *She's leaving*

A5		Bm7			A/C#
And if she caves then you're bringing back the show  *I'm leaving*
Yeah Yeah


A5	E
Wake up, and see the places

Dsus2	E
All you've got and all you take

A5	E
You don't have to fall to pieces

Dsus2
You have to prove it

A5	E
Make up, your pretty faces

Dsus2	E
It's a lovely trip a lovely place

A5	E
You've got one life here to make it for the movies (Yeah)



|----------------------------------|-------------------------------12b--|
|-------------------------------12b|-12b--12br-h10----10h12-10----------|
|--------9-----9-11br-11br---9-----|---------------11-------------------|
|--9h11----11-------------11-------|------------------------------------|
|----------------------------------|------------------------------------|
|----------------------------------|------------------------------------|

|-17---17----9--7br--h5---7h5--7b--|h6-----6---7b-h5------5h7--5--------|
|----17---17-----------------------|----7-------------7-----------------|
|----------------------------------|------------------------------------|
|----------------------------------|------------------------------------|
|----------------------------------|------------------------------------|
|----------------------------------|------------------------------------|

A5		Bm7			A/C#
A change of pace could really do some good  *She's leaving*

A5		Bm7			A/C#
And if she caves then you're bringing back the show  *I'm leaving*
Yeah Yeah


A5	E
Wake up, and see the places

Dsus2	E
All you've got and all you take

A5	E
You don't have to fall to pieces

Dsus2
You have to prove it

A5	E
Make up, your pretty faces

Dsus2	E
It's a lovely trip a lovely place

A5	E
You've got one life here to make it for the movies (Yeah)

Yeah Yeah Yeah Yeah Yeah Yeah Yeah Yeah Yeah Yeah

For the movies

Yeah Yeah Yeah Yeah Yeah Yeah Yeah Yeah Yeah

For the movies



	

	A5         [x022x0]
	Bm7        [x242xx]
	A/C#       [x422xx]
	Dsus2      [x00230]
	E          [022100]
	E7         [022130]
	DV         [x5777x]
	EVII       [07999x]
	B5         [0244xx]
	Esus2      [799xx0]

Tabbed by
Tabby Kat
Raiderett909@hotmail.com
Comments