Buckcherry - For The Movies Chords & Tabs

 

For The Movies Chords & Tabs

Buckcherry Chords & Tabs

Version: 1 Type: Tab 0 ratings
1 star 2 stars 3 stars 4 stars 5 stars
comments

For The Movies Tab

Buckcherry
"For the movies"
Buckcherry

e-5-----5h7p5-----------------4----------2-2-0------5-------5-7----
b-2------------5------------5------------------3----6-----6--------
g-2--------------6--------6----------2--------------7---7-----------
d-2---------------------6----------0----------------7---------------
a-0-------------------4-----------------------------5----------------
e-------------------------------------------------------------------
repeat that 3 times then....

e-----2-------2-------2-----------2----------------------------------
b-2---3---2---3---2---3----2------3----------------------------------
g-2---4---2---2---2---4----2------2---1-1-1-1-1----------------------
d-2---4---2-------2---4----2----------2-2-2-2-2----------------------
a-----2---4-----------2----4----------2-2-2-2-2----------------------
e--------------------------------------------------------------------

let all those ring above except for the e chord at the end

this is the "wake up and....."

e-------------------------------------------------------------------
b--------------------------------------------------------------------
g-----------1-1-----7-7-----1-1------------1-1------7-7------9999-7-
d---7-7-x-x-2-2-x-x-7-7-x-x-2-2-x-x-7-7x-x-2-2-x-x--7-7-x-x--9999-7--
a---7-7-x-x-2-2-x-x-5-5-x-x-2-2-x-x-7-7x-x-2-2-x-x--5-5-x-x--7777-5-
e---5-5-x-x-----x-x-----x-x-----x-x-5-5x-x-----x-x------x-x---------

repeat three times i think

then the solo
[ Tab from: http://www.guitartabs.cc/tabs/b/buckcherry/for_the_movies_tab.html ]
e--------------------------------7bend-5---5-7-5----------------17----17-----------
b------5---5~--7bend1/2--5---5~----------7----------17^keep up-----17----17bringdown
g--4h6---6-----------------6----------------------------------------------
d-------------------------------------------------------------------
a--------------------------------------------------------------------
e--------------------------------------------------------------------

e---------------------------------------------------------------------
b--------------------------------------------------------------------
g-14--16-14-16-16^-14----14-16-16^-14----14-16-14-2/4^1----1-2-4-2-5^5---
d---------------------16--------------16----------------4--------------
a-----------------------------------------------------------------------
e----------------------------------------------------------------------

after the solo you repeat various parts and then towards the end theres something like this

e-----2--------------------------------------------------------------
b-----2----2-----------------------------------------------------------
g--4--3--1-3-----------------------------------------------------------
d--4--4--2-4------------------------------------------------------------
a--2--4--2-4------------------------------------------------------------
e-----2----2----------------------------------------------------------

that is basicly the song if you have any questions e-mail me at markman278@aol.com
enjoy

Comments