Buckcherry - Everything Chords & Tabs

 

Everything Chords & Tabs

Buckcherry Chords & Tabs

Version: 1 Type: Tab

Everything Tab

#----------------------------------PLEASE NOTE--------------------------------#
#This file is the author's own work and represents their interpretation of the#
#song. You may only use this file for private study, scholarship, or research.#
#-----------------------------------------------------------------------------#
#-- File created with Instab - http://www.pconline.com/~smcarey/instab.html --#
#-----------------------------------------------------------------------------#

Author/Artist: Buckcherry
Title: Everything
Album: 15

Intro (palm muted):
------------------------------------------------------------------------------|
------------------------------------------------------------------------------|
-6-6-6------------------------------------------------------------------------|
-6-6-6-6-6-6-6-6-7-7-7-9-9-9-9-9----------------------------------------------|
-4-4-4-6-6-6-6-6-7-7-7-9-9-9-9-9----------------------------------------------|
-------4-4-4-4-4-5-5-5-7-7-7-7-7----------------------------------------------|

Verse (palm muted):
------------------------------------------------------------------------------|
------------------------------------------------------------------------------|
------------------------------------------------------------------------------|
------------------------------------------------------------------------------|
-4-4-4------------------------------------------------------------------------|
-------4-4-4-4-4-5-5-5-7-7-7-7-7----------------------------------------------|
[ Tab from: http://www.guitartabs.cc/tabs/b/buckcherry/everything_tab.html ]
Pre-Chorus:
------------------------------------------------------------------------------|
------------------------------------------------------------------------------|
------------------------------------------------------------------------------|
-7-------2-------9------------------------------------------------------------|
-7-------2-------9------------------------------------------------------------|
-5-------0-------7------------------------------------------------------------|

Chorus:
------------------------------------------------------------------------------|
------------------------------------------------------------------------------|
-9----------------------------------------------------------------------------|
-9-------9-------7-------2----------------------------------------------------|
-7-------9-------7-------2----------------------------------------------------|
---------7-------5-------0----------------------------------------------------|

Bridge:
------------------------------------------------------------------------------|
------------------------------------------------------------------------------|
---------7---------------5----------------------------------------------------|
-5-------7-------3-------5----------------------------------------------------|
-5-------5-------3-------3----------------------------------------------------|
-3---------------1------------------------------------------------------------|

Outro Chorus:
------------------------------------------------------------------------------|
------------------------------------------------------------------------------|
-11---------------------------------------------------------------------------|
-11------11-------9-------4---------------------------------------------------|
-9-------11-------9-------4---------------------------------------------------|
---------9--------7-------2---------------------------------------------------|