Buckcherry - Crushed Chords & Tabs

 

Crushed Chords & Tabs

Buckcherry Chords & Tabs

Version: 1 Type: Tab 0 ratings
1 star 2 stars 3 stars 4 stars 5 stars
comments

Crushed Tab

   
Person: Aaron Thomas

song: crushed

artist: Buckcherry

tab:  "Crushed" 
By Buckcherry
tabbed by Aaron Thomas (cyberputts@hotmail.com)

INTRO:
E---
B---
G-9/
D-9/
A-7/
E---

MAIN RIFF:
E-----------------------------
B-----------------------------
G-9-6-------------------------
D-9-6-7-----------------------
A-7-4-7-7H9-7H9-7~~-7H9-7H9/12
E-----5-----------------------

VERSE BEFORE THE CHORUS:
E----------------------------
B----------------------------
G-9-6---9H11-9H11-9----9-9/14
D-9-6-7-------------11-------
A-7-4-7----------------------
E-----5----------------------

CHORUS:
E------------
B------------
G-------9-9-9
D-7-7-7-9-9-9  
A-7-7-7-7-7-7       
E-5-5-5------
[ Tab from: http://www.guitartabs.cc/tabs/b/buckcherry/crushed_tab.html ]
RIGHT AFTER CHORUS
E--------
B--------
G--------
D-9-9-9-9
A-9-9-9-9
E-7-7-7-7

INTERLUDE
E------------------------
B------------------------
G------------------------
D------------------------
A-7/6--------------------
E-------7-7/5---5/4---4/7

POWERCHORD VERSION
E------------------------
B------------------------
G-9/8--------------------
D-9/8---9-9/7---7/6---6/9
A-7/6---9-9/7---7/6---6/9
E-------7-7/5---5/4---4/7

RIGHT AFTER INTERLUDE
E-----------------------------
B-----------------------------
G-9~~~~-11~~~~~-12~~~~~-11~~~~
D-----------------------------
A-----------------------------
E-----------------------------

OUTRO:
E----------
B----------
G-----9-X-9
D-9-X-9-X-9
A-9-X-7-X-7
E-7-X------
Comments