Buckcherry - Crazy Bitch Chords & Tabs

 

Crazy Bitch Chords & Tabs

Buckcherry Chords & Tabs

Version: 1 Type: Tab 0 ratings
1 star 2 stars 3 stars 4 stars 5 stars
comments

Crazy Bitch Tab

Artist:Buckcherry
Song:Crazy Bitch
Album:15
Tabbed:J.Dungan
Tuning: Standard

~ = vibrato
^ = bend
P = pull off
h = hammer on

Intro:
E--------------------------------------
B--------------------------------------
G-4-4---4-4---4-4-4-4-4-4-4--9^9-7-9-7~
D-4-4---4-4---4-4-4-4-4-4-4--9^9-7-9-7~
A-2-2---2-2---2-2-2-2-2-2-2------------
E--------------------------------------
            Al----right!
E------------------------------------
B------------------------------------
G-4-4-4-4-4-4-4--------9-7~----------
D-4-4-4-4-4-4-4--------9-7~----------
A-2-2-2-2-2-2-2--7-8-9---------------
E------------------------------------

E------------------------------------
B------------------------------------
G-4-4-4-4-4-4-4--9^9-7-9-7~----------
D-4-4-4-4-4-4-4--9^9-7-9-7~----------
A-2-2-2-2-2-2-2----------------------
E------------------------------------

E------------------------------------
B------------------------------------
G------------------------------------
D------------------------------------
A----------------------5-------------
E-4-4--4-5-5--5-7-7--7---7~----------

Verse 2x
2x(with wah)
E-------------------------------
B-------------------------------
G-------------------------------
D-------0h1p0----------0h1p0----
A-0h2-2-------0--0h2-2----------
E----------------------------0--

E-----------------------------------------
B-----------------------------------------
G-----------------------------------------
D-------0h1p0-----------------------------
A-0h2-2-------0-----------------5p0---9~--
E-----------------4-4--4-5-5--5-----7-7~--
        2nd time ^slide from 15th to 4th loud^

Chorus 2x
E-----------------------------
B------------------9^9-7-9-7~-
G-4-4---4-4---4-4--9^9-7-9-7~-
D-4-4---4-4---4-4-------------
A-2-2---2-2---2-2-------------
E-----------------------------

E--------------------------------------
B--------------------------------------
G-4-4---4-4----------------------------
D-4-4---4-4----------------------------
A-2-2---2-2------------------5p0---9~--
E--------------4-4--4-5-5--5-----7-7~--
               ^slide from 15th fret to 4th

Bridge to 2nd Verse:
E-----------------------------------------------------------
B-----------------------------------------------------------
G-----------------------------------------------------------
D-----------------------------------------------------------
A-------------------------5-----------------------5p0---9~--
E-4-4-4-4-5-5-5-5-7-7-7-7---7-7-7---4-4--4-5-5--5-----7-7~--

2nd Verse
2x(same as first)
E-------------------------------
B-------------------------------
G-------------------------------
D-------0h1p0----------0h1p0----
A-0h2-2-------0--0h2-2----------
E----------------------------0--
[ Tab from: http://www.guitartabs.cc/tabs/b/buckcherry/crazy_bitch_tab.html ]
E-----------------------------------------
B-----------------------------------------
G-----------------------------------------
D-------0h1p0-----------------------------
A-0h2-2-------0-----------------5p0---9~--
E-----------------4-4--4-5-5--5-----7-7~--
        2nd time ^slide from 15th to 4th loud^

Chorus 2x
E-----------------------------
B------------------9^9-7-9-7~-
G-4-4---4-4---4-4--9^9-7-9-7~-
D-4-4---4-4---4-4-------------
A-2-2---2-2---2-2-------------
E-----------------------------

E--------------------------------------
B--------------------------------------
G-4-4---4-4----------------------------
D-4-4---4-4----------------------------
A-2-2---2-2------------------5p0---9~--
E--------------4-4--4-5-5--5-----7-7~--
               ^slide from 15th fret to 4th

Guitar Solo:
Rhythm (played with Guitar Solo)
E-----------------------------
B-----------------------------
G-----------------------------
D-----------------------------
A-----------------------------
E-0-1-2-0-1-2-0-1-2-0-1-2-2---  4x

E-----------------------------
B-----------------------------
G-----------------------------
D-----------------------------
A-0-1-2-0-1-2-0-1-2-0-1-2-2---  2x
E-----------------------------

E---------------------------                     ---------------
B---------------------------                     ---------------
G---------------------------                     ---------------
D---------------------------                     ---------------
A---------------------------                     ---6-6-7-7-9/--
E-0-1-2-0-1-2-0-1-2-0-1-2-2-   2x then end with  -0-4-4-5-5-7/--

Break: Drums + Vocal only
then
Chorus: 2x bass with quiet Guitar(Wah pedal)Ad libs no rythm guitar

Main Bridge:4x
E------------------------------------
B------------------------------------
G--7-7--9-9--------------------------
D--7-7--9-9--------------------------
A--5-5--7-7-----------------5p0---9~-
E-------------4-4--4-5-5--5-----7-7~-

Chorus: 2x HARD and LOUD
E--------------------------------------------------
B--------------------------------------------------
G--4-4-4-4-4-4-4-4-4-4-4-4-4-4-4-4-4-4-4-4-4-4-4-4-
D--4-4-4-4-4-4-4-4-4-4-4-4-4-4-4-4-4-4-4-4-4-4-4-4-
A--2-2-2-2-2-2-2-2-2-2-2-2-2-2-2-2-2-2-2-2-2-2-2-2-
E--------------------------------------------------
1st time thru
E-------------------------
B-------------------------
G-------------------------
D-------------------------
A----------------5p0---9~-
E--4-4--4-5-5--5-----7-7~-
   ^slide from 15th fret to 4th

2nd time thru Outro:
E----------------------------
B----------------------------
G----------------------------
D----------------------------
A-----------------------5----
E--4-4--4-5-5--5-7-7--7---7--

E----------------------------
B----------------------------
G----------------------------
D----------------------------
A-----------------------5----
E--4-4--4-5-5--5-7-7--7---7--

E-------------------------
B-------------------------
G-------------------------
D-------------------------
A----------------5p0---9~-
E--4-4--4-5-5--5-----7-7~- 
   ^slide from 15th fret to 4th, let last chord ring





Comments