Buck-o-nine - On A Mission Chords & Tabs

 

On A Mission Chords & Tabs

Buck-o-nine Chords & Tabs

Version: 1 Type: Bass Tab 0 ratings
1 star 2 stars 3 stars 4 stars 5 stars
comments

On A Mission Bass Tab

Song: On A Mission
Band: Buck-O-Nine
Album: Barfly
tabbed by: Adam Marish


Intro

G:---------------------------------------
D:---------------------------------------
A:------------------4-4443-2-2222222-----
E:-5-5554-2-2222222----------------------

Verse

G:-------------------------------------------
D:------------------------6-7-9--99-7-6------
A:---4-7-4-----4-7-4---77---------------9----
E:-5--------55-------------------------------

Horn Section Riff
[ Tab from: http://www.guitartabs.cc/tabs/b/buck-o-nine/on_a_mission_btab.html ]
G:-------------------------------------------
D:----2-5-2-----2-5-2------------------------
A:-33--------33---------55-3-2----55-3-2-----
E:-----------------------------5---------5---

Outro

G:----------------------------------------------
D:----------------------------------------------
A:-55555555-55555555-55555555-555555---2-5------
E:-----------------------------------5----------

Outro May Be Wrong...I Have No Clue.

Adam Marish
The Royal Noise Brigade - Ska To The Next Level!
www.come.to/royalnoisebrigade

Comments