Buck-o-nine - My Town Chords & Tabs

 

My Town Chords & Tabs

Buck-o-nine Chords & Tabs

Version: 1 Type: Bass Tab 0 ratings
1 star 2 stars 3 stars 4 stars 5 stars
comments

My Town Bass Tab

BAND:BUCK-0-NINE
SONG:MY TOWN

++++++++++++++++++++++++++++++++++++++++++++++++++++++++++++++++++++++++++
VERSION 1:
++++++++++++++++++++++++++++++++++++++++++++++++++++++++++++++++++++++++++


INTRO:

-----------------------------------------------------------------
-----------------------------------------------------------------
----7---9---7---5------------------------------------------------
5--------------------12/-----------------------------------------


MAIN PART:

-----------------------------------------------------------------
-----5-----5------------7----7---------------7---------7---------
--------7-----0----77----9-----7-----999-----777-----5555--------
55-------------------------------------------------------------------5555

I HAVE NOT BEEN ABLE TO FIGURE OUT THE FIRST PART OF THE CHORUS , IF I DO I
WILL SEND IT IN LATER!


OTHER PART OF THE CHORUS:


-----------------------------------------------------------------
-----------------------------------------------------------------
--------77----55----44----22-------------------------------------
-----------------------------------------------------------------

ENDING:


-----------------------------------------------------------------
-----5-----5------------7------7--------------7------------------
--------7-----0---77------9------7----999-------7777--5--4--2----
55-------------------------------------------------------------------------5

[ Tab from: http://www.guitartabs.cc/tabs/b/buck-o-nine/my_town_btab.html ]
THAT IS IT, I THINK. AGAIN I WILL SEND IN THE OTHER PART IF I CAN EVER FIND
OU
THOW TO PLAY IT.

TABED BY: CHRIS  "AKA" FATY

+++++++++++++++++++++++++++++++++++++++++++++++++++++++++++++++++++++++
VERSION 2:
+++++++++++++++++++++++++++++++++++++++++++++++++++++++++++++++++++++++


INTRO:

-----------------------------------------------------------------
-----------------------------------------------------------------
----7---9---7---5------------------------------------------------
5--------------------12/-----------------------------------------
i think that's right.

MAIN RIFF:

-----------------------------------------------------------------
-----5-----5--7---------6----6-8---------------------------------
00------7----------77----9-----------9999----7777-----5-4------
------------------------------------------------------------7-5--0-2-0
i play it a little differently.

CHORUS:
------------------------------------------------------------2----
----4---------------4-----------------------------2--4-2--4------
--5---5---3-2-----5--5---3-2----0-------------0-4---------------
------------------------------------33--2-0----------------------
*slide into the 'D' each time through*                          *slide into
the 'C# here*


-----------------------------------------------------------------
----4---------------4--------------------------------------------
--5---5---3-2-----5--5---3-2-----7777-5555----4444-2222-------
-----------------------------------------------------------------
the ending is just the main riff over and over again, stopping on one of
the
end notes.



-Yarnold

Comments