Bubble Puppy - Hot Smoke And Sassafrass Chords & Tabs

 

Hot Smoke And Sassafrass Chords & Tabs

Bubble Puppy Chords & Tabs

Version: 1 Type: Tab 0 ratings
1 star 2 stars 3 stars 4 stars 5 stars
comments

Hot Smoke And Sassafrass Tab

   
Bubble Puppy - Hot Smoke and Sassafrass
By:Andrew Mcshan (Guitarguyx182@aol.com)

Intro: 
e|---------------------------------------------------------------------| 
B|----------------------------x---x---x---x---7----------x--x--x--x----| 
G|---------------------8---7--x---x---x---x---7--5h6p5h6-x--x--x--x--8-| 
D|-(12)----------------------------------------------------------------| 
A|---------------------------------------------------------------------| 
E|---------------------------------------------------------------------| 

e:---------------------------------------------------------------------| 
B:-----x---x---x---x---7----------x-x----------------------------------| 
G:--7--x---x---x---x---7--5h6p5h6-x-x------5--5---------5/-------------| 
D:-----------------------------------------5--5---------5/-------------| 
A:------------------------------------5-h7-------5-h7--------------14--| 
E:-----------------------------------------------------------------14--| 
  
e:---------------------------------------------------------------------| 
B:---------------------------------------------------------------------| 
G:------------------5--5--------5/--------------------------------5--5-| 
D:------------------5--5--------5/--------------------------------5--5-| 
A:--5-----7----5-h7-------5-h7--------------14---5-----7----5-h7-------| 
E:--3-----5---------------------------------14---3-----5---------------| 
F5                         F5 
In the mist of sasa-frass Many  things will come to pass 
F5                                  F5 
And the  smoke shall rise again  To the  place  above 

where it began 
e:----------------------------------------------| 
B:---------15-----15------15--------------------| 
G:---------17b-19-17b(19)(19)r17----16--17--16--| 
D:----------------------------------------------| 
A:----------------------------------------------| 
E:----------------------------------------------| 
  
e:---------------------------------------------------------------------| 
B:---------15----------------------------------------------------------| 
G:---------17b(19)-16h17--p16------16-h17-p16--------------------------| 
D:-----------------------------17-----------------------------------14-| 
A:-----------------------------------------------------17--15-h16------| 
E:---------------------------------------------------------------------| 

e:---------------------------------------------------------------------| 
B:---------------------------------------------------------------------| 
G:------14--------------------------16-17-18-19--19-18-17-16-----------| 
D:-h16------16-----17----------17--------------------------------------| 
A:------------------------------------------------------------17-15h16-| 
E:---------------------------------------------------------------------| 
  
e:-------------------------| 
B:-------------------------| 
G:-------14----------------| 
D:-14h16----16-------------| 
A:-------------------------| 
E:-------------------------| 
  
Intro Again

 F5 
Time will bring the 
F5 
foreign plain  Through the  heirs that brought the rain 
F5                                 F5 
But in  the gardens of the moon  Time is held within 
G 
the silver spoon 
[ Tab from: http://www.guitartabs.cc/tabs/b/bubble_puppy/hot_smoke_and_sassafrass_tab.html ]
e:----------------------------------------------| 
B:--------------------------------------15------| 
G:----------15-17-17b(19)--15-16-17sb-----15-17-| 
D:-------17--------------17---------------------| 
A:----------------------------------------------| 
E:----------------------------------------------| 
  
e:-----------------15-15-----------------------------------------------| 
B:---------------15-------------------15--17---------------------------| 
G:-15-----------x---------15-17p15----15--17---------------------------| 
D:-----17-15-17--------------------17--------17---------------14-14-16-| 
A:---------------------------------------------------17-15-16----------| 
E:---------------------------------------------------------------------| 
  
e:---------------------------------------------------------------------| 
B:------------------------------------15-------------------------------| 
G:-14-14-----------------15-16-17b(19)--15-17-15-17-15-----------------| 
D:-------16-s17-------17-----------------------------------------------| 
A:-------------------------------------------------------------17-15-16| 
E:---------------------------------------------------------------------| 
 
e:----------------------------------| 
B:----------------------------------| 
G:----------14-14-------------------| 
D:-14-14-16-------16----------------| 
A:----------------------------------| 
E:----------------------------------| 
  
e:---------------------------------------------------------------------| 
B:----------------------------------------10-h12-10h12p10---10---------| 
G:-----------------------7-h9-s11--11-h12----------------12----12-11-9-| 
D:-----------7-9----7-h9-----------------------------------------------| 
A:------8-s9-----9-----------------------------------------------------| 
E:---------------------------------------------------------------------| 
  
e:---------------------------------------------------------------------| 
B:---------------------------------------------------------------------| 
G:11-9h11p9-s7-9-s11-9-7-9-p7-h9-p7-h9-p7-h9-p7-h9-p7-h9-p7-h9-p7-h9-p7| 
D:---------------------------------------------------------------------| 
A:---------------------------------------------------------------------| 
E:---------------------------------------------------------------------| 
  
e:---------------------------------------------------------------------| 
B:---------------------------------------------------------------------| 
G:6-h7-p6--------------------------------------------------------------| 
D:--------9-7-h9-7h9p7----7--5h7p5s4-5--4---4---------------4--5--7-s9-| 
A:---------------------10-----------------7---7--5----5--7-------------| 
E:---------------------------------------------|-----------------------| 
  
  
e:--------------------------------------------------------------------| 
B:--------------------------------------------------------------------| 
G:--------------------------------------------------------------------| 
D:-7--9--7--9--7---------------4-----4-----------------------4--------| 
A:---------------10-9-10--9-------7-----7--5-h7--5-----5--7-----5/----| 
E:--------------------------------------------------------------------| 
  
e:---------------------------------------------------------------------| 
B:---------------------------------------------------------------------| 
G:---------------------------------------------------------------------| 
D:-7-h9--7-h9-7-h9--7-h9--7-h9-7-h9--7-h9--7-h9--7--6--4-----4-6p4---7-| 
A:--------------------------------------------------------7--------7-7-| 
E:-------------------------------------------------------------------5-| 
F5                                  F5 
If you're happy where you are  Then you 
F5 
need  not look  too far  If you've found your place at last 
  G 
Then you need not use  the looking glass 
  
e:-----------------------| 
B:---------15-----15-----| 
G:---------17b(19)17b(19)| 
D:-----------------------| 
A:-----------------------| 
E:-----------------------| 
  
e:---------------------------------------------------------------------| 
B:<15>----------------------------15-------------15--------------------| 
G:(19)r17----16--17--16-----------17b(19)-16h17------16--16-h17-h16----| 
D:---------------------------------------------------17----------------| 
A:---------------------------------------------------------------------| 
E:---------------------------------------------------------------------| 
  
e:---------------------------------------------------------------------| 
B:-----------------------------------------------------------15--------| 
G:-----------------------------14---------------15-16-17b(19)--15-17-15| 
D:--------------------14--h16------16-s17s---17------------------------| 
A:--------17--15-h16---------------------------------------------------| 
E:---------------------------------------------------------------------| 
  
e:----------------------------------------------|
B:----------------------------------------------| 
G:-17-15------------------------14--------------|
D:------------------------14-16----16-----------|
A:--------------17-15-16------------------------|
E:----------------------------------------------|
Comments