Bubba Sparxxx - Deliverance Chords & Tabs

 

Deliverance Chords & Tabs

Bubba Sparxxx Chords & Tabs

Version: 2 Type: Tab 0 ratings
1 star 2 stars 3 stars 4 stars 5 stars
comments

Deliverance Tab

   
Artist: Bubba Sparxxx
Title:  Deliverance
Album:  Deliverance
Tab By: MJ (www.MJ-6.com)
Tuning: Standard (E A D G B E)

Notes: This song sounds good played on 2 acoustic guitars, one playing the
natural chords while the other plays the corresponding barre chords, strum each
chord about 4 times, listen to the song to get a better idea of the exact timing
and rhythm of the song.
[ Tab from: http://www.guitartabs.cc/tabs/b/bubba_sparxxx/deliverance_tab_ver_2.html ]
Guitar 1
    Am    C    G    F
e|--------0----3----1---|
B|---1----1----3----1---|
G|---2----0----0----2---|
D|---2----2----0----3---|
A|---0----3----2----3---|
E|--------0----3----1---|

Guitar 2
    Am    C    G    F
e|---5----8----3----1---|
B|---5----8----3----1---|
G|---5----9----4----2---|
D|---7----10---5----3---|
A|---7----10---5----3---|
E|---5----8----3----1---|
Comments