Bryan Adams - Run To You Chords & Tabs

 

Run To You Chords & Tabs

Bryan Adams Chords & Tabs

Version: 6 Type: Tab 0 ratings
1 star 2 stars 3 stars 4 stars 5 stars
comments

Run To You Tab

Hi Bryan Adam Fans  - yes i sure am one and see him live...This one of the great 
& please rate it.

NOTE:
!!!! CAPO 2nd Fret !!!!  Stardard Tuning : EADGBE

Main Riff:

E----------------------------------------------------|
B----------------------------------------------------|
G----------------------------------------------------|
D------0-------0-------------0----------0------------|
A----2------2-----2--------2--------4------4---------|
E--0------0----------0---3-------5-------------5-----|

Intro Solo:
     BU   BD ^^^^^^^^^    BU            w/feedback      BD
E------------------------------------------------------------|
B--5--(7)---(5)----------------------------------------------|
G-----------------------4---(6)-------------------------(4)--|
D------------------------------------------------------------|
A------------------------------------------------------------|
E------------------------------------------------------------|

Pre-Chorus:
E-------------------------3-3-3-3--X-X----|
B---5----------------7----3-3-3-3--X-X----|
G---5---------5-/-7--7----2-2-2-2--X-X----|
D---5---------5-/-7--7--------------------|
A---3---------3-/-5--5--------------------|
E-----------------------------------------|


Chorus:
[ Tab from: http://www.guitartabs.cc/tabs/b/bryan_adams/run_to_you_tab_ver_6.html ]
E--0--X--3--3--X-2---2--X----------------|
B--0--X--3--3--X-3---3--X---2--2--2--X---|      X3
G--0--X--0--0--X-2---2--X---2--2--2--X---|
D--2--X--0--0--X-0---0--X---2--2--2--X---|
A--2--X--------X------------0--0--0--X---|
E--0--X--3--3--X-------------------------|

Interlude:
             ^^^^^^^^                  ^^^^^^^^           ^^^^^^^^
E---------------------------------------------------------------------|
B--9-10-9-----------------7--8--7---------------5-6-5-----------------|
G---------9-----------------------7-------------------5---------------|
D-----------9-------------------------7------------------5------------|
A---------------------------------------------------------------------|
E---------------------------------------------------------------------|
               ^^^^^^^^^
E-------------------------|
B---7-8-7-----------------|
G----------7--------------|
D-------------7-----------|
A-------------------------|
E-------------------------|

Chorus 2:

E-0--0--X--3----3--X-----2---2---X-----------------------|
B-0--0--X--3----3--X-----3---3---X-----------------------|
G-0--0--X--0----0--X-----2---2---X---2----------2---2--2-|
D-2--2--X--0----0--X-----0---0---X---2----------2---2--2-|
A-2--2--X----------------------------0----------0---0--0-|
E-0--0--X--3----3--X-------------------------------------|

Thats it! Any comments? reply back and do rate it please! Thanks, Andy M

Tab Guide:

/     = slide
X     = mute
^^^   = vibrato/vibrate
5 (4) = Bend up or down note to the pitch in the bracket
BU    = Bend up
BD    = Bend Down
Comments