Bryan Adams - Run To You Chords & Tabs

 

Run To You Chords & Tabs

Bryan Adams Chords & Tabs

Version: 1 Type: Tab 1 rating
1 star 2 stars 3 stars 4 stars 5 stars
comments

Run To You Tab

   
Bryan Adams 
Tabs powered by larooche
	GUIT#1: CAPO 2
 I  |--------------------------------------------------|--------------------------------------------------- 2
 N  |--------------------------------------------------|--------------------------------------------------- T
 T  |--------------------------------------------------|--------------------------------------------------- I
 R  |---------0--------0---------------0--------0------|---------0--------0---------------0--------0------- M
 O  |------2--------2-----2---------2--------4-----4---|------2--------2-----2---------2--------4-----4---- E
    |---0--------0-----------0---3--------5-----------5|---0--------0-----------0---3--------5-----------5- S


	GUIT SOLO: NORMAL TUNING(EADGBe)	 
 I   |------------------------------------------ play 
 N   |--------5b ----> (5)~~~~~~~~ -------------     at                      
 T   |-------------------------------4b~~~~~ ---       the                    
 R   |------------------------------------------         second        
 O   |------------------------------------------              time      
     |------------------------------------------
______________________________________________________________________________________________________________
GUIT#1
CAUSE   	 WHEN IT GETS TOO  MUCH_	    I NEED TO  FE_EL YOUR TOUCH_     I'M GONNA
   -----------------------------------------2--------------------2---2--------2-----2----x--x--
   1----------------------------------------3--------------------3---3--------3-----3----x--x--
   0----------------------------------------2--------------------2---2--------2-----2----x--x--
   2----------------------------------------0--------------------0---0--------0-----0----x--x--
   3----------------3-3-3-3-3-3-3-3-3-3-3------------------------------------------------------
   -----------------PM-------------------------------------------------------------------------
[ Tab from: http://www.guitartabs.cc/tabs/b/bryan_adams/run_to_you_tab.html ]
guit solo
CAUSE   	 WHEN IT GETS TOO  MUCH_	    I NEED TO  FE_EL YOUR TOUCH_     I'M GONNA
   --------------------------------------------------------------------------------------------
   7-------------------------------7/9------9--------------------5-----------------------------
   7-------------------------------7/9------9--------------------4-----------------------------
   7-------------------------------7/9------9--------------------6-----------------------------
   5-------------------------------5/7------7--------------------4-----------------------------
   --------------------------------------------------------------------------------------------
______________________________________________________________________________________________________________
chorus
RUN TO YOU_					  I'GON_NA RUN TO YOU__
Em 	   g		  d		 a						
-0------x--3-------3--x---2-------2--x----------------------0------x--3------3--x---2------2--x---
-0------x--3-------3--x---3-------3--x---2------2--2--x-----0------x--3------3--x---3------3--x---
-0------x--0-------0--x---2-------2--x---2------2--2--x-----0------x--0------0--x---2------2--x---
-2------x--0-------0--x---0-------0--x---2------2--2--x-----2------x--0------0--x---0------0--x---
-2------x--2-------2--x------------------0------0--0--x-----2------x--2------2--x-----------------
-0------x--3-------2--x-------------------------------------0------x--3------2--x-----------------

	Cause when the feel_in's    right I'm gon_na run all       night  I'm gonna run to you_
-----------------------0-------x---3-------3---x---2-------2--x----------------------0------x--3-----3--x--2-
-2-------2--2--x-------0-------x---3-------3---x---3-------3--x----2------2--2---x---0------x--3-----3--x--3-
-2-------2--2--x-------0-------x---0-------0---x---2-------2--x----2------2--2---x---0------x--0-----0--x--2-
-2-------2--2--x-------2-------x---0-------0---x---0-------0--x----2------2--2---x---2------x--0-----0--x--0-
-0-------0--0--x-------2-------x---2-------2---x-------------------0------0--0---x---2------x--2-----2--x----
-----------------------0-------x---3-------3---x-------------------------------------0------x--3-----2--x---
______________________________________________________________________________________________________________

	GUIT#1
|--------------------------------------------------|-----------------------------------------------------
|--------------------------------------------------|-----------------------------------------------------
|--------------------------------------------------|-----------------------------------------------------
|---------0--------0---------------0--------0------|---------0--------0---------------0--------0---------
|------2--------2-----2---------2--------4-----4---|------2--------2-----2---------2--------4-----4------
|---0--------0-----------0---3--------5-----------5|---0--------0-----------0---3--------5-----------5---

							GUIT SOLO	 
				Play twice	|-------------------------------------------
						|-------17b ----> (17)~~~~~~~~ -------------
						|------------------------------16b~~~~~ ----
						|-------------------------------------------
						|-------------------------------------------
						|-------------------------------------------
____________________________________________________________________________________________________________
during the second verse
Guit SoLo
...let me down			      ... i know her love is true,___  but it's so...
---------------------------------------|----------------------------------------------
---------------------------------------|--------------------------17b~~~~~~~~ --------
--------------------9b--(9)/11~~~~~~~~ |----------------------------------------------
----------------11---------------------|----------------------------------------------
---------------------------------------|----------------------------------------------
---------------------------------------|----------------------------------------------
______________________________________________________________________________________________________________

SOLO PART
--------------------------------------------------------------------------- 2
--11/12--11~-----------9/10--9~-----------7/8--7~-----------9/10--9~------- T
------------11~----------------9~----------------7~-----------------9~----- I
---------------11~---------------9~----------------7~-----------------9~--- M
--------------------------------------------------------------------------- E
--------------------------------------------------------------------------- S


Comments