Bryan Adams - Run To You Chords & Tabs

 

Run To You Chords & Tabs

Bryan Adams Chords & Tabs

Version: 1 Type: Bass Tab 0 ratings
1 star 2 stars 3 stars 4 stars 5 stars
comments

Run To You Bass Tab

Bryan Adams - "Run to You" - Bass Tab

(My original Tab was in the wrong key and incomplete)

Common Time(4/4)
Standard Tuning(EADG)

Verse:
 
|------------|-----------|-----------|------------|
|*---4-------|-----------|---4-------|-----------*|
|*-----------|-----2-----|-----------|-----------*|
|--2-----2-4-|-5-----5-4-|-2-----2-4-|-5---0-5-4--|
   1 2 3 4 &   1 2 3 4 &   1 2 3 4 &   1 2 3 4 &

Pre-Chorus:
  
|-----------------|-----------------|-----------------|
|-----------------|-----------------|-----------------|
|-5-5-5-5-5-5-5-5-|-5-5-5-5-5-5-5-5-|-7-7-7-7-7-7-7-7-|
|-----------------|-----------------|-----------------|
  1 & 2 & 3 & 4 &   1 & 2 & 3 & 4 &   1 & 2 & 3 & 4 &
  
|-----------------|
|-----------------|
|-7-7-7-5-4-7-5-4-|
|-----------------|
  1 & 2 & 3 & 4 &
[ Tab from: http://www.guitartabs.cc/tabs/b/bryan_adams/run_to_you_btab.html ]
Chorus:
 
|-----------------|---------------|
|-----------------|---------------|
|---------------7-|---7-----------| (last time only play first bar
|-2-2-4-5---5-7---|-----7-7-7-7-7-|   then let the 'E' carry)
  1 & 2 & 3 & 4 &   1 & 2 & 3 & 4 

Middle:

|----------|---------|---------|---------|---------|---------|
|*---------|---------|---------|---------|---------|-2---4---|
|*---------|---------|---------|---------|-5-------|---------|
|--2-------|---------|-4---\---|-0-------|---------|---------|
   1 2 3 4   1 2 3 4   1 2 3 4   1 2 3 4   1 2 3 4   1 2 3 4 
  _______	           _______
 |1.                  |2.             (x4) 
|---------|----------|---------|-----------|-----------------|
|-2-------|---------*|-2-------|*---------*|-----------------|
|---------|---------*|---------|*-r-r-r-r-*|-2-2-2-2-2-2-2-2-|
|---------|-5---4----|---------|-----------|-----------------|
  1 2 3 4   1 2 3 4    1 2 3 4    1 2 3 4     1 & 2 & 3 & 4 & 
 
Outro:
 
|-----------------|-----------------|
|-----------------|-----------------|
|---------------7-|-7-7-------------|
|-2-2-4-5-5-5-7---|-----7-7-7-7-7-7-|
  1 & 2 & 3 & 4 &   1 & 2 & 3 & 4 &

By: Johari Taylor
E-mail: viking@powerup.com.au


Comments