Bryan Adams - Please Forgive Me Chords & Tabs

 

Please Forgive Me Chords & Tabs

Bryan Adams Chords & Tabs

Version: 1 Type: Tab 0 ratings
1 star 2 stars 3 stars 4 stars 5 stars
comments

Please Forgive Me Tab

E-----------------------------------------
B-------0------0--------------------------
G-----2------2----------------------------
D-----------------------------------------
A---2------0------------------------------
E-----------------------------------------
[ Tab from: http://www.guitartabs.cc/tabs/b/bryan_adams/please_forgive_me_tab.html ]
E----------------------------------------------------
B--14-14h10h12-12-14 12-10---------------14-12-14---
G--------------------------11--9h11-9h11-------------
D----------------------------------------------------
A----------------------------------------------------
E----------------------------------------------------

Cheeze....you know you love it......

Jason Wang 
submitted on 12/06/02 (the night before my CIM exam!!)
Comments