Bryan Adams - Heaven Chords & Tabs

 

Heaven Chords & Tabs

Bryan Adams Chords & Tabs

Version: 5 Type: Tab

Heaven Tab

   
                  Heaven- Bryan Adams


This is my first tab. I hope I got everything right. If not symply send a mail!


  Intro:
    C     Am     G      F     C      Am       G       F
e|----------------------------------------------------------------|
B|----------------------------------------------------------------|
G|-----------------------------------12------10-9-----------------|
D|----------------------------10------------------10--------------|
A|----------------------------------------------------12----------|
E|----------------------------------------------------------------|

  Verse:
  C    Am                 G                      Dm          Am
e|----------------------------------------------------------------|
B|----------------------------------------------------------------|
G|----------------------------------------------------------------|
D|----------------------------------------------------------------|
A|----------------------------------------------------------------|
E|--------------------------------------0----3--------------------|
  Oh thinking about our younger years there was only you and me

          G                        C     Am                   G
e|----------------------------------------------------------------|
B|----------------------------------------------------------------|
G|----------------------------------------------------------------|
D|----------------------------------------------------------------|
A|----------------------------------------------------------------|
E|----------------------------------------------------------------|
  we were young and we were free   Now nothing can take you away from me

             Dm               Am               G
e|----------------------------------------------------------------|
B|----------------------------------------------------------------|
G|----------------------------------------------------------------|
D|----------------------------------------------------------------|
A|----------------------------------------------------------------|
E|--0----3--------------------------------------------------------|
  we´ve been down that road before but that´s over now


e|----------------------------------------------------------------|
B|----------------------------------------------------------------|
G|----------------------------------------------------------------|
D|----------------------------------------------------------------|
A|----------------------------------------------------------------|
E|----------------------------------------------------------------|
  You keep me coming back for more


   Refrain:
  F5          G5         A5               C5                F5
e|----------------------------------------------------------------|
B|----------------------------------------------------------------|
G|----------------------------------------------------------------|
D|----------------------------------------------------------------|
A|----------------------------------------------------------------|
E|------------------------------0-----2---------------------------|
  Baby you´re all that I want when you´re lying here in my arms

  F5             G5        A5               G5
e|----------------------------------------------------------------|
B|----------------------------------------------------------------|
G|----------------------------------------------------------------|
D|----------------------------------------------------------------|
A|-------------------------------------------------12/14--12------|
E|----------------------------------------------------------------|
  I´m finding it hard to believe we´re in heaven

      F5      G5         A5         C5                    F5
e|----------------------------------------------------------------|
B|----------------------------------------------------------------|
G|----------------------------------------------------------------|
D|----------------------------------------------------------------|
A|----------------------------------------------------------------|
E|-----------------------------0--2-------------------------------|
  And love is all that I need and I found it here in your heart

     F5        G5      A5           G5
e|----------------------------------------------------------------|
B|----------------------------------------------------------------|
G|----------------------------------------------------------------|
D|--------------------------------------------12------------------|
A|-----------------------------------------10---------------------|
E|----------------------------------------------------------------|
  It isn´t too hard to see we´re in heaven


  Bridge:
  C      Am      G       F
e|----------------------------------------------------------------|
B|----------------------------------------------------------------|
G|-------------/10-9----------------------------------------------|
D|-------------------10-------------------------------------------|
A|----------------------12----------------------------------------|
E|----------------------------------------------------------------|


   Verse:
  C  Am                   G                     Dm               Am
e|----------------------------------------------------------------|
B|----------------------------------------------------------------|
G|----------------------------------------------------------------|
D|----------------------------------------------------------------|
A|----------------------------------------------------------------|
E|--------------------------------------0---3---------------------|
  Oh once in you life you find someone who will turn your life around

            G                             C    Am
e|----------------------------------------------------------------|
B|----------------------------------------------------------------|
G|----------------------------------------------------------------|
D|----------------------------------------------------------------|
A|----------------------------------------------------------------|
E|----------------------------------------------------------------|
  Bring you up when you´re feeling down   Yeah nothing can change

           G                       Dm                Am
e|----------------------------------------------------------------|
B|-----------------3----------------------------------------------|
G|--------------4-------------------------------------------------|
D|----------------------------------------------------------------|
A|----------5-----------------------------------------------------|
E|----------------------------------------------------------------|
  what you mean to me   Oh there´s lots that I could say
[ Tab from: http://www.guitartabs.cc/tabs/b/bryan_adams/heaven_tab_ver_5.html ]
           Dm                    G
e|----------------------------------------------------------------|
B|----------------------------------------------------------------|
G|----------------------------------------------------------------|
D|----------------------------------------------------------------|
A|----------------------------------------------------------------|
E|----------------------------------------------------------------|
  But just hold me now  cause or love will light the way


   Refrain:
  F5          G5         A5               C5               F5
e|----------------------------------------------------------------|
B|----------------------------------------------------------------|
G|----------------------------------------------------------------|
D|----------------------------------------------------------------|
A|----------------------------------------------------------------|
E|------------------------------0-----2---------------------------|
  Baby you´re all that I want when you´re lying here in my arms

      F5         G5        A5             G5
e|----------------------------------------------------------------|
B|-------------------------------------------------13p12----------|
G|-------------------------------------------------------12-------|
D|----------------------------------------------------------12----|
A|----------------------------------------------------------------|
E|----------------------------------------------------------------|
  I´m finding it hard to believe we´re in heaven

       F5      G5         A5         C5                     F5
e|----------------------------------------------------------------|
B|----------------------------------------------------------------|
G|----------------------------------------------------------------|
D|----------------------------------------------------------------|
A|----------------------------------------------------------------|
E|------------------------------0--2------------------------------|
  Yeah love is all that I need and I found it there in your heart


     F5        G5      A5           G5
e|----------------------------------------------------------------|
B|--------------------------------------------------12------------|
G|----------------------------------------------------------------|
D|--------------------------------------------10h12---------------|
A|----------------------------------------------------------------|
E|----------------------------------------------------------------|
  It isn´t too hard to see we´re in heaven


   Bridge:
                       Dm                       F5           sC5
e|----------------------------------------------------------------|
B|-13-13-12-10-12-------------------------------------------------|
G|----------------12----------------------------------------------|
D|----------------------------------------------------------------|
A|----------------------------------------------------------------|
E|-------------------------------------------0--------------------|
                       I´ve been waiting for so long for something

       A5        Dm                 F5 G5 A5           Dm
e|----------------------------------------------------------------|
B|----------------------------------------------------------------|
G|----------------------------------------------------------------|
D|----------------------------------------------------------------|
A|----------------------------------------------------------------|
E|----------------------------------------------------------------|
  to arrive  for love to come along            Now our dreams are

         F5                                  A5
e|----------------------------------------------------------------|
B|----------------------------------------------------------------|
G|----------------------------------------------------------------|
D|----------------------------------------------------------------|
A|---------------------------7p5----------------------------------|
E|----0-----------------------------------------------------------|
  coming true through the good times and the bad  yeah I´ll be

   G5               C5
e|----------------------------------------------------------------|
B|----------------------------------------------------------------|
G|----------------------------------------------------------------|
D|----------------------------------------------------------------|
A|----------------------------------------------------------------|
E|----------------------------------------------------------------|
  standing there by you


  Solo: I don´t want to steal the tabs of others so take the solo vers2
        from this side. In my opinion it´s correct!

  Refrain:
      F5          G5         A5               C5               F5
e|----------------------------------------------------------------|
B|----------------------------------------------------------------|
G|----------------------------------------------------------------|
D|----------------------------------------------------------------|
A|----------------------------------------------------------------|
E|----------------------------------0-----2-----------------------|
  And baby you´re all that I want when you´re lying here in my arms

      F5         G5         A5            G5           F5
e|----------------------------------------------------------------|
B|----------------------------------------------------------------|
G|----------------------------------------------------------------|
D|----------------------------------------------------------------|
A|----------------------------------------------------------------|
E|----------------------------------------------------------------|
  I´m finding it hard to believe we´re in heaven   And love is

  G5         A5         C5                    F5
e|----------------------------------------------------------------|
B|----------------------------------------------------------------|
G|----------------------------------------------------------------|
D|----------------------------------------------------------------|
A|----------------------------------------------------------------|
E|-----------------0--2-------------------------------------------|
  all that I need and I found it here in your heart it isn´t too

  G5      A5           G5
e|----------------------------------------------------------------|
B|----------------------------------------------------------------|
G|----------------------------------------------------------------|
D|----------------------------------------------------------------|
A|----------------------------------------------------------------|
E|----------------------------------------------------------------|
  hard to see we´re in heaven


 /  slide up
   slide down
 h  hammer-on
 p  pull-off
 ~  vibrato
 +  harmonic
 x  Mute note


That´s it. Pretty easy I think. But you must listen to the song while playing to 
everything! Enjoy!