Bryan Adams - Heaven Chords & Tabs

 

Heaven Chords & Tabs

Bryan Adams Chords & Tabs

Version: 3 Type: Tab 0 ratings
1 star 2 stars 3 stars 4 stars 5 stars
comments

Heaven Tab

   
-------------------------------------------------------------------------------
			     Heaven - Bryan Adams
-------------------------------------------------------------------------------
Tabbed by: Robinson Dabalos
Email: Holyman_81887@yahoo.com

Tuning: Standard tuning
[ Tab from: http://www.guitartabs.cc/tabs/b/bryan_adams/heaven_tab_ver_3.html ]
	I think this is the correct tab for the intro of Heaven by Bryan Adams, I got
this tab in one of the site that I explore, and I figure that there are some mistake so
that I change few of the numbers. I hope you enjoy playing this good song and be patient
in playing guitar so that you can go far...

Intro

    C      Am     G      F
e------0------0------0---1-0-----|
B---1-3-3--1-3-3--1-3--------3-1-|
G----0---0--2---0--0-------------| x2
D--------------------------------|
A---3------0---------------------|
E-----------------3------1-------|
Comments