Bryan Adams - Everything I Do I Do It For You Chords & Tabs

 

Everything I Do I Do It For You Chords & Tabs

Bryan Adams Chords & Tabs

Version: 3 Type: Tab 0 ratings
1 star 2 stars 3 stars 4 stars 5 stars
comments

Everything I Do I Do It For You Tab

   
----------------------------------------------------------------------------
                 EVERY THING I DO I DO IT FOR YOU - Bryan Adams
----------------------------------------------------------------------------
Tabbed by:DJ Inferno
Email:DJ_Inferno2000@hotmail.com

I checked out all the other posts and none of them seem to have the right solo.
The solo is quite easy, but you need to listen to it a couple of times to get the
feel of it.

Key:  /     slide
      h     hammer on
      b     bend
      ~     vibrato
Tuning:e b G D A e

so the solo goes like this:
[ Tab from: http://www.guitartabs.cc/tabs/b/bryan_adams/everything_i_do_i_do_it_for_you_tab_ver_3.html ]
            G                      D                        G              D
e|------------|------------------------------------------------------9------|
B|------------|-----------------------------------------9-9-----9/11---11-9-|
G|-8-10-------|--8/10~\--/10-8/6-3/6---6/8-----6-6-8/10------6-6------------|
D|------8-11--|---------------------------6/8-------------------------------|
A|------------|-------------------------------------------------------------|
E|------------|-------------------------------------------------------------|

e|-------------------------------|
B|-11-9-9-11---------------------|
G|------------8h10---8b-8b-8b-6--|
D|-------------------------------| (Bend the three 8's one half note each)
A|-------------------------------|
E|-------------------------------|

I know it looks a bit complicated but its easy enough if you practice. Any
comments please mail to DJ_Inferno2000@hotmail.com [case sensitive]. Have fun
playing this solo.
                     ~DJ Inferno
Comments