Bruno Mars - Talking To The Moon Chords & Tabs

 

Bruno Mars Chords & Tabs

Version: 2 Type: Tab 0 ratings
1 star 2 stars 3 stars 4 stars 5 stars
comments

Talking To The Moon Tab

Tabs took me approx 3 hours to figure out, I'm not that good with guitar, hopefully you 
guys can make my interpretaion a reality!

Id love emails of videos! vozzyv@gmail.com

E|---------------------------------------------------|
B|-----5-----------5-----------5-----------5---------|
G|-----------4-----------4-----------4-----------4---|
D|---------------------------------------------------|
A|---------------------------------------------------|
E|---------------------------------------------------|
                I know you're somewhere out there

E|---------------------------------------------------|
B|-----4-----------4-----------4-----------4---------|
G|-----------5-----------5-----------5-----------5---|
D|---------------------------------------------------|
A|---------------------------------------------------|
E|---------------------------------------------------|
       Somewhere far away

E|---------------------------------------------------|
B|-----5-----------5-----------5-----------5---------|
G|-----------6-----------6-----------6-----------6---|
D|---------------------------------------------------|
A|---------------------------------------------------|
E|---------------------------------------------------|
       I want you back

E|---------------------------------------------------|
B|-----4-----------4-----------2-----------2---------|
G|-----------4-----------4-----------2-----------2---|
D|---------------------------------------------------|
A|---------------------------------------------------|
E|---------------------------------------------------|
       I want you back






E|---------------------------------------------------|
B|-----5-----------5-----------5-----------5---------|
G|-----------4-----------4-----------4-----------4---|
D|---------------------------------------------------|
A|---------------------------------------------------|
E|---------------------------------------------------|
                My neighbors think I'm crazy

E|---------------------------------------------------|
B|-----4-----------4-----------4-----------4---------|
G|-----------5-----------5-----------5-----------5---|
D|---------------------------------------------------|
A|---------------------------------------------------|
E|---------------------------------------------------|
       But they don't understand

E|---------------------------------------------------|
B|-----5-----------5-----------5-----------5---------|
G|-----------6-----------6-----------6-----------6---|
D|---------------------------------------------------|
A|---------------------------------------------------|
E|---------------------------------------------------|
       You're all I have

E|---------------------------------------------------|
B|-----4-----------4-----------2-----------2---------|
G|-----------4-----------4-----------2-----------2---|
D|---------------------------------------------------|
A|---------------------------------------------------|
E|---------------------------------------------------|
       You're all I have






E|---------------------------------------------------|
B|-----2-----------2-----------2-----------2---------|
G|---------------------------------------------------|
D|-----------4-----------4-----------4-----------4---|
A|---------------------------------------------------|
E|---------------------------------------------------|
                         At night when the stars

E|---------------------------------------------------|
B|-----4-----------4-----------4-----------4---------|
G|-----------4-----------4-----------4-----------4---|
D|---------------------------------------------------|
A|---------------------------------------------------|
E|---------------------------------------------------|
       light up my room

E|---------------------------------------------------|
B|-----2-----------2-----------2-----------2-----4---|
G|-----------------------------------------------4---|
D|-----------4-----------4-----------4---------------|
A|---------------------------------------------------|
E|---------------------------------------------------|
                         I sit by myself






E|------------------0-------------------------------0-|
B|------------------2---------------4---------------2-|
G|------------------2---------------4---------------1-|
D|------------------2---------------4---------------2-|
A|------------------0---------------------------------|
E|----------------------------------------------------|
     Talking to the moon

E|------------------0-------------------------------0-|
B|------------------2---------------4---------------2-|
G|------------------2---------------4---------------1-|
D|------------------2---------------4---------------2-|
A|------------------0---------------------------------|
E|----------------------------------------------------|
      Try to get to you

E|-----0-------------------------------4--3--0-------|
B|-----2---------------4---------------5--4--2-------|
G|-----2---------------4---------------4--3--1-------|
D|-----2---------------4---------------------2-------|
A|-----0---------------------------------------------|
E|---------------------------------------------------|
    In hopes you're on the other side,    talking to me too

E|------------0--------------------------------------|
B|--4---------2-------------------------------4------|
G|--4---------2-------------------------------4------|
D|--4---------2-------------------------------4------|
A|------------0--------------------------------------|
E|---------------------------------------------------|
    Or am I a fool,                  who sits alone

E|------------------0-------------------------------2-|
B|------------------2---------------4---------------2-|
G|------------------1---------------4---------------3-|
D|------------------2---------------4---------------4-|
A|--------------------------------------------------4-|
E|--------------------------------------------------2-|
     Talking to the moon






E|---------------------------------------------------|
B|-----5-----------5-----------5-----------5---------|
G|-----------4-----------4-----------4-----------4---|
D|---------------------------------------------------|
A|---------------------------------------------------|
E|---------------------------------------------------|
                   I'm feeling like a famous
[ Tab from: http://www.guitartabs.cc/tabs/b/bruno_mars/talking_to_the_moon_tab_ver_2.html ]
E|---------------------------------------------------|
B|-----4-----------4-----------4-----------4---------|
G|-----------5-----------5-----------5-----------5---|
D|---------------------------------------------------|
A|---------------------------------------------------|
E|---------------------------------------------------|
       The talk of the town,                  They say

E|---------------------------------------------------|
B|-----5-----------5-----------5-----------5---------|
G|-----------6-----------6-----------6-----------6---|
D|---------------------------------------------------|
A|---------------------------------------------------|
E|---------------------------------------------------|
       I've gone mad,                         Yeah

E|---------------------------------------------------|
B|-----4-----------4-----------2-----------2---------|
G|-----------4-----------4-----------2-----------2---|
D|---------------------------------------------------|
A|---------------------------------------------------|
E|---------------------------------------------------|
       I've gone mad






E|---------------------------------------------------|
B|-----5-----------5-----------5-----------5---------|
G|-----------4-----------4-----------4-----------4---|
D|---------------------------------------------------|
A|---------------------------------------------------|
E|---------------------------------------------------|
                   But they don't know what I know

E|---------------------------------------------------|
B|-----4-----------4-----------4-----------4---------|
G|-----------5-----------5-----------5-----------5---|
D|---------------------------------------------------|
A|---------------------------------------------------|
E|---------------------------------------------------|
       Cause when the sun goes down,          someone's

E|---------------------------------------------------|
B|-----5-----------5-----------5-----------5---------|
G|-----------6-----------6-----------6-----------6---|
D|---------------------------------------------------|
A|---------------------------------------------------|
E|---------------------------------------------------|
       Talking back,                          Yeah they're

E|---------------------------------------------------|
B|-----4-----------4-----------2-----------2---------|
G|-----------4-----------4-----------2-----------2---|
D|---------------------------------------------------|
A|---------------------------------------------------|
E|---------------------------------------------------|
       Talking back






E|---------------------------------------------------|
B|-----2-----------2-----------2-----------2---------|
G|---------------------------------------------------|
D|-----------4-----------4-----------4-----------4---|
A|---------------------------------------------------|
E|---------------------------------------------------|
                         At night when the stars

E|---------------------------------------------------|
B|-----4-----------4-----------4-----------4---------|
G|-----------4-----------4-----------4-----------4---|
D|---------------------------------------------------|
A|---------------------------------------------------|
E|---------------------------------------------------|
       light up my room

E|---------------------------------------------------|
B|-----2-----------2-----------2-----------2-----4---|
G|-----------------------------------------------4---|
D|-----------4-----------4-----------4---------------|
A|---------------------------------------------------|
E|---------------------------------------------------|
                         I sit by myself






E|------------------0-------------------------------0-|
B|------------------2---------------4---------------2-|
G|------------------2---------------4---------------1-|
D|------------------2---------------4---------------2-|
A|------------------0---------------------------------|
E|----------------------------------------------------|
     Talking to the moon

E|------------------0-------------------------------0-|
B|------------------2---------------4---------------2-|
G|------------------2---------------4---------------1-|
D|------------------2---------------4---------------2-|
A|------------------0---------------------------------|
E|----------------------------------------------------|
      Try to get to you

E|-----0-------------------------------4--3--0-------|
B|-----2---------------4---------------5--4--2-------|
G|-----2---------------4---------------4--3--1-------|
D|-----2---------------4---------------------2-------|
A|-----0---------------------------------------------|
E|---------------------------------------------------|
    In hopes you're on the other side,    talking to me too

E|------------0--------------------------------------|
B|--4---------2-------------------------------4------|
G|--4---------2-------------------------------4------|
D|--4---------2-------------------------------4------|
A|------------0--------------------------------------|
E|---------------------------------------------------|
    Or am I a fool,                  who sits alone

E|------------------0-------------------------------2-|
B|------------------2---------------4---------------2-|
G|------------------1---------------4---------------3-|
D|------------------2---------------4---------------4-|
A|--------------------------------------------------4-|
E|--------------------------------------------------2-|
     Talking to the moon




E|---------------------------------------------------|
B|-----5-----------5-----------5-----------5---------|
G|-----------4-----------4-----------4-----------4---|
D|---------------------------------------------------|
A|---------------------------------------------------|
E|---------------------------------------------------|

E|---------------------------------------------------|
B|-----4-----------4-----------4-----------4---------|
G|-----------5-----------5-----------5-----------5---|
D|---------------------------------------------------|
A|---------------------------------------------------|
E|---------------------------------------------------|

E|---------------------------------------------------|
B|-----5-----------5-----------5-----------5---------|
G|-----------6-----------6-----------6-----------6---|
D|---------------------------------------------------|
A|---------------------------------------------------|
E|---------------------------------------------------|

E|---------------------------------------------------|
B|-----4-----------4-----------2-----------2---------|
G|-----------4-----------4-----------2-----2---------|
D|---------------------------------------------------|
A|---------------------------------------------------|
E|---------------------------------------------------|
Comments