Bruno Mars - Grenade Chords & Tabs

 

Bruno Mars Chords & Tabs

Version: 7 Type: Tab 0 ratings
1 star 2 stars 3 stars 4 stars 5 stars
comments

Grenade Tab

   
Hope you enjoy playing the song :)
it's kinda tricky in the chorus part cause it changes chords fast but you'll get a 
hang of it in no time so happy playing
You'll be seeing more tabs/chords/guitar pro tabs from me soon 

Capo 5th Fret

Verse:

    Am             Am           Em            Em
|--------------------------------------------------------|
|---1----1----1----1---1---1----0---0---0----0---0---0---|
|----2----2---------2---2--------0---0--------0---0------|
|-----2----2----2----2---2---2----2---2---2----2---2---2-|     
|--------------------------------------------------------|    
|--------------------------------------------------------|


    Am             Am               Em           
|--------------------------------------------------------|
|---1----1----1----1---1---1----0---0---0----------------|
|----2----2---------2---2--------0---0-------1~----------|
|-----2----2----2----2---2---2----2---2---2--------------|     
|--------------------------------------------------------|    
|--------------------------------------------------------|

Am
Gave you all I had
And you tossed it in the trash
    Em
You tossed it in the trash, you did
Am
To give me all your love
Is all I ever asked
Fm                        E
Cause what you don't understand is

Chorus:
                Am      Fm         C
I'd catch a grenade for ya (yeah, yeah)
          G         Am        Fm         C
Throw my hand on a blade for ya (yeah, yeah)
            G          Am        Fm         C 
I'd jump in front of a train for ya (yeah, yeah)
             G        Am     F          C
You know I'd do anything for ya (yeah, yeah)
    G           Fm                     G
Oh, oh, I would go through all of this pain,
       Am               E         C
Take a bullet straight through my brain!
              Am                 G (stop)
Yes, I would die for ya, baby,                        
But you won't do the same. 


 Am             Am           Em            Em
|--------------------------------------------------------|
|---1----1----1----1---1---1----0---0---0----0---0---0---|
|----2----2---------2---2--------0---0--------0---0------|
|-----2----2----2----2---2---2----2---2---2----2---2---2-|     
|--------------------------------------------------------|    
|--------------------------------------------------------|

   Am             Am           Em            Em
|--------------------------------------------------------|
|---1----1----1----1---1---1----0---0---0----0---0---0---|
|----2----2---------2---2--------0---0--------0---0------|
|-----2----2----2----2---2---2----2---2---2----2---2---2-|     
|--------------------------------------------------------|    
|--------------------------------------------------------|

[ Tab from: http://www.guitartabs.cc/tabs/b/bruno_mars/grenade_tab_ver_7.html ]
    Am             Am               Em           
|--------------------------------------------------------|
|---1----1----1----1---1---1----0---0---0----------------|
|----2----2---------2---2--------0---0-------1~----------|
|-----2----2----2----2---2---2----2---2---2--------------|     
|--------------------------------------------------------|    
|--------------------------------------------------------|

Am
Gave you all I had
And you tossed it in the trash
    Em
You tossed it in the trash, you did
Am
To give me all your love
Is all I ever asked
Fm                        E
Cause what you don't understand is


Chorus:
               Am      Fm         C
I'd catch a grenade for ya (yeah, yeah)
          G         Am        Fm         C
Throw my hand on a blade for ya (yeah, yeah)
            G          Am        Fm         C 
I'd jump in front of a train for ya (yeah, yeah)
             G        Am     F          C
You know I'd do anything for ya (yeah, yeah)
    G           Fm                     G
Oh, oh, I would go through all of this pain,
       Am               E         C
Take a bullet straight through my brain!
              Am                 G (stop)
Yes, I would die for ya, baby,                        
But you won't do the same. 


Bridge:

Fm
If my body was on fire,
Am
Ooh, you'd watch me burn down in flames.
Dm
You said you loved me, you're a liar,
            Em    Em    Em
'cause you never, ever, ever did, baby!


    Am             Am              Am           
|-------------------------------------------|
|---1----1----1----1---1---1---1---1---1----|
|----2----2---------2---2-------2---2-----2~|
|-----2----2----2----2---2---2---2---2--2---|     
|-------------------------------------------|    
|-------------------------------------------|
But, darling 

Chorus:

                       Am      Fm         C
I'd still  catch a grenade for ya (yeah, yeah)
          G         Am        Fm         C
Throw my hand on a blade for ya (yeah, yeah)
            G          Am        Fm         C 
I'd jump in front of a train for ya (yeah, yeah)
             G        Am     F          C
You know I'd do anything for ya (yeah, yeah)
    G           Fm                     G
Oh, oh, I would go through all of this pain,
       Am               E         C
Take a bullet straight through my brain!
              Am                 G (stop)
Yes, I would die for ya, baby,                        
But you won't do the same. 
2x
    Am             Am           G            G
|--------------------------------------------------------|
|---1----1----1----1---1---1----0---0---0----0---0---0---|
|----2----2----2----2---2---2----0---0---0----0---0---0--|
|-----2----2---------2---2--------0---0--------0---0-----|     
|--------------------------------------------------------|    
|--------------------------------------------------------|
The End 
Comments