Brujeria - Sida De La Muerte Chords & Tabs

 

Sida De La Muerte Chords & Tabs

Brujeria Chords & Tabs

Version: 1 Type: Tab 0 ratings
1 star 2 stars 3 stars 4 stars 5 stars
comments

Sida De La Muerte Tab

Song: Sida De La Mente
Band: Brujeria
Album: Brujerizmo
Transcribed: jose oRejeL (albafreak1@juno.com)
Tune to Drop D

Here's another Brujeria Song that I tabbed...I hope u like playing it
and please VOTE FOR MY TAB!!!  and i'm sorry for my don quijote marijuana
tab, that was my first one...i'll try to fix it later...

KEY:
(666)= Optional
SPM____= Slighty Palm Mute

Intro:
E|------------------------------------------------|
B|------------------------------------------------|
G|------------------------------------------------| play @ 5x's
D|-(3-3-3-4-3--3-3-3-4-3--3-3-3-4-3--1-1-1-1-1-1)-|
A|--3-3-3-4-3--3-3-3-4-3--3-3-3-4-3--1-1-1-1-1-1--|
D|--3-3-3-4-3--3-3-3-4-3--3-3-3-4-3--1-1-1-1-1-1--|

Verse 1:
E|------------------------------------------------|
B|------------------------------------------------|
G|------------------------------------------------|
D|------------------------------------------------|
A|------------------------------------------------|
D|--3-3-3-4-3--3-3-3-4-3--3-3-3-4-3--1-1-1-1-1-1--| then play bottom
SPM  _________  _________  _________  ___________

E|-----------------------------------|
B|-----------------------------------|
G|-----------------------------------|
D|-----------------------------------|
A|-----------------------------------|
D|--3-3-3-4-3--3-3-3-4-3--3-3-3-4-3--| then play bottom
SPM  _________  _________  _________

E|------------------------------------------------|
B|------------------------------------------------|
G|------------------------------------------------| play @ 2x's
D|-(3-3-3-4-3--3-3-3-4-3--3-3-3-4-3--1-1-1-1-1-1)-|
A|--3-3-3-4-3--3-3-3-4-3--3-3-3-4-3--1-1-1-1-1-1--|
D|--3-3-3-4-3--3-3-3-4-3--3-3-3-4-3--1-1-1-1-1-1--|

Pre-Khorus:
E|---------------------------------------|
B|---------------------------------------| PLAY @ 8x's
G|--------------------6-6-6-7-7-7-4-4-4--| Play the (x) over the 3rd fret,
D|--3-3-3-3-x-x-x-x-x-6-6-6-7-7-7-4-4-4--| slighty touch the top 3 chords...
A|--3-3-3-3-x-x-x-x-x-4-4-4-5-5-5-2-2-2--| don't add pressure, that way u kan
D|--3-3-3-3-x-x-x-x-x--------------------| get that funky sound...STRUM!!!

Post-Khorus:
E|---------------------------------------| PLAY @ 4x's
B|---------------------------------------| Play the (x) over the 1st fret,
G|---------------------------------------| slight touch the top 3 chords...
D|--3-3-3-3-x-x-x-x-x-x-5-5-5-6-6-6-8-8--| don't add pressure, that way u kan
A|--3-3-3-3-x-x-x-x-x-x-5-5-5-6-6-6-8-8--| get a hard bass sound...STRUM FAST
D|--3-3-3-3-x-x-x-x-x-x-5-5-5-6-6-6-8-8--| ON (X)!!!
[ Tab from: http://www.guitartabs.cc/tabs/b/brujeria/sida_de_la_muerte_tab.html ]
Pre-Verse 2:
E|------------------------------------------------|
B|------------------------------------------------|
G|------------------------------------------------| play @ 3x's
D|-(3-3-3-4-3--3-3-3-4-3--3-3-3-4-3--1-1-1-1-1-1)-|
A|--3-3-3-4-3--3-3-3-4-3--3-3-3-4-3--1-1-1-1-1-1--|
D|--3-3-3-4-3--3-3-3-4-3--3-3-3-4-3--1-1-1-1-1-1--|

Verse 2:
E|------------------------------------------------|
B|------------------------------------------------|
G|------------------------------------------------|
D|------------------------------------------------|
A|------------------------------------------------|
D|--3-3-3-4-3--3-3-3-4-3--3-3-3-4-3--1-1-1-1-1-1--| then play bottom
SPM  _________  _________  _________  ___________

E|-----------------------------------|
B|-----------------------------------|
G|-----------------------------------|
D|-----------------------------------|
A|-----------------------------------|
D|--3-3-3-4-3--3-3-3-4-3--3-3-3-4-3--| then play bottom
SPM  _________  _________  _________

E|------------------------------------------------|
B|------------------------------------------------|
G|------------------------------------------------| play @ 2x's
D|-(3-3-3-4-3--3-3-3-4-3--3-3-3-4-3--1-1-1-1-1-1)-|
A|--3-3-3-4-3--3-3-3-4-3--3-3-3-4-3--1-1-1-1-1-1--|
D|--3-3-3-4-3--3-3-3-4-3--3-3-3-4-3--1-1-1-1-1-1--|

Pre-Khorus:
E|---------------------------------------|
B|---------------------------------------| PLAY @ 8x's
G|--------------------6-6-6-7-7-7-4-4-4--| Play the (x) over the 3rd fret,
D|--3-3-3-3-x-x-x-x-x-6-6-6-7-7-7-4-4-4--| slighty touch the top 3 chords...
A|--3-3-3-3-x-x-x-x-x-4-4-4-5-5-5-2-2-2--| don't add pressure, that way u kan
D|--3-3-3-3-x-x-x-x-x--------------------| get that funky sound...STRUM!!!

Post-Khorus:
E|---------------------------------------| PLAY @ 8x's
B|---------------------------------------| Play the (x) over the 1st fret,
G|---------------------------------------| slight touch the top 3 chords...
D|--3-3-3-3-x-x-x-x-x-x-5-5-5-6-6-6-8-8--| don't add pressure, that way u kan
A|--3-3-3-3-x-x-x-x-x-x-5-5-5-6-6-6-8-8--| get a hard bass sound...STRUM FAST
D|--3-3-3-3-x-x-x-x-x-x-5-5-5-6-6-6-8-8--| ON (X)!!!

Outro:
E|------------------------------------------------|
B|------------------------------------------------|
G|------------------------------------------------| play @ 5x's
D|-(3-3-3-4-3--3-3-3-4-3--3-3-3-4-3--1-1-1-1-1-1)-| then play bottom stanza
A|--3-3-3-4-3--3-3-3-4-3--3-3-3-4-3--1-1-1-1-1-1--|
D|--3-3-3-4-3--3-3-3-4-3--3-3-3-4-3--1-1-1-1-1-1--|

E|-----------------------------------------------------------|
B|-----------------------------------------------------------|
G|-----------------------------------------------------------|
D|-3-3-3-4-3--3-3-3-4-3--3-3-3-4-3--1-1-1-1-1-1-1-1-1-1-1-1--|
A|-3-3-3-4-3--3-3-3-4-3--3-3-3-4-3--1-1-1-1-1-1-1-1-1-1-1-1--|
D|-3-3-3-4-3--3-3-3-4-3--3-3-3-4-3--1-1-1-1-1-1-1-1-1-1-1-1--|
Comments