Brujeria - Pito Wilson Chords & Tabs

 

Pito Wilson Chords & Tabs

Brujeria Chords & Tabs

Version: 1 Type: Tab 0 ratings
1 star 2 stars 3 stars 4 stars 5 stars
comments

Pito Wilson Tab

this the song pito wilson i hope you enjoy it so here it is

INTRO

6--1-1-2-1--1-1-1-1-2-1--1-1-2-1--1-1-1----------------------
5--1-1-2-1--1-1-1-1-2-1--1-1-2-1--1-1-1----------------------
4--1-1-2-1--1-1-1-1-2-1--1-1-2-1--1-1-1----------------------     x2
3------------------------------------------------------------
2------------------------------------------------------------
1------------------------------------------------------------

then play this shit 
[ Tab from: http://www.guitartabs.cc/tabs/b/brujeria/pito_wilson_tab.html ]
6--1-1-2-1--1-1-1-1-2-1--1-1-2-1--1-1-1--1-1-----------------
5--1-1-2-1--1-1-1-1-2-1--1-1-2-1--1-1-1--1-1-----------------
4--1-1-2-1--1-1-1-1-2-1--1-1-2-1--1-1-1--1-1-----------------     x4
3------------------------------------------------------------
2------------------------------------------------------------
1------------------------------------------------------------

VERSE

6--2/1-1--2/1-1--2/1-1--1-(2)--------------------------------
5--2/1-1--2/1-1--2/1-1--1-(2)--------------------------------
4--2/1-1--2/1-1--2/1-1--1-(2)--------------------------------     x8
3------------------------------------------------------------
2------------------------------------------------------------
1------------------------------------------------------------

the chorus its like the INTRO 
and then you play another VERSE and the a little bit of the intro then
the INTRO complete like in the chorus and the play the END

END

6--1-1---------------------1--
5--1-1-play x14------------1--
4--1-1-----------and then--1--
3-----------------------------
2-----------------------------
1-----------------------------

any shit you wanna tell me DESTINYPUNK@HOTMAIL.COM

you know what i mean.
Comments