Brujeria - Brujerizmo Chords & Tabs

 

Brujerizmo Chords & Tabs

Brujeria Chords & Tabs

Version: 1 Type: Tab 0 ratings
1 star 2 stars 3 stars 4 stars 5 stars
comments

Brujerizmo Tab

   
Song: Brujerizmo
Album: Brujerizmo
Band: Brujeria
Transcribed: pinche grenudo loko
E-mail: albafreak1@juno.com

INSTRUMENT: GUITAR
Drop D
PM: Palm Mute

here's another song, that somebody told me to tab for them...so here it goes...enjoy!!!
VOTE FOR MY TAB...oh yeah, before playing this...LISTEN TO THE SONG!!!

Intro:
  	PLAY ALL THIS 3X'S
E|-------------------------------------------------------------------------------------------|
B|-------------------------------------------------------------------------------------------|
G|-------------------------------------------------------------------------------------------|
D|-------------------------------------------------------------------------------------------|
A|-0-2-3-0--0-2-0-0-2-3-2-0-2-3-0--0-2-0-0-2-3-2-0-2-3-0--0-2-0-0-2-3-0--0-0-0-0-0-0-0-0-0-0-|
D|-0-2-3-0--0-2-0-0-2-3-2-0-2-3-0--0-2-0-0-2-3-2-0-2-3-0--0-2-0-0-2-3-0--0-0-0-0-0-0-0-0-0-0-|
PM . . . .  . . . . . . . . . . .  . . . . . . . . . . .  . . . . . . .  . . . . . . . . . .

Verse:
   PLAY THIS 3X'S		PLAY THIS ONCE
E|--------------------------|----------------------|
B|--------------------------|----------------------|
G|--------------------------|----------------------|
D|--------------------------|----------------------|
A|--0-0-0-5-0--0-7-0-8-0-7--|--0-0-0-5-0--0-7-6-5--|
D|--0-0-0-5-0--0-7-0-8-0-7--|--0-0-0-5-0--0-7-6-5--| then play bottom
PM  . . . . .  . . . . . .     . . . . .  . . . .

   PLAY THIS 3X'S		PLAY THIS ONCE
E|--------------------------|----------------------|
B|--------------------------|----------------------|
G|--------------------------|----------------------|
D|--------------------------|----------------------|
A|--0-0-0-5-0--0-7-0-8-0-7--|--0-0-0-5-0--0-7-6-5--|
D|--0-0-0-5-0--0-7-0-8-0-7--|--0-0-0-5-0--0-7-6-5--|

Khorus:
  	PLAY ALL THIS 2X'S
E|-------------------------------------------------------------------------------------------|
B|-------------------------------------------------------------------------------------------|
G|-------------------------------------------------------------------------------------------|
D|-------------------------------------------------------------------------------------------|
A|-0-2-3-0--0-2-0-0-2-3-2-0-2-3-0--0-2-0-0-2-3-2-0-2-3-0--0-2-0-0-2-3-0--0-0-0-0-0-0-0-0-0-0-|
D|-0-2-3-0--0-2-0-0-2-3-2-0-2-3-0--0-2-0-0-2-3-2-0-2-3-0--0-2-0-0-2-3-0--0-0-0-0-0-0-0-0-0-0-|
PM . . . .  . . . . . . . . . . .  . . . . . . . . . . .  . . . . . . .  . . . . . . . . . .
[ Tab from: http://www.guitartabs.cc/tabs/b/brujeria/brujerizmo_tab.html ]
Pre-Verse:
		PLAY ALL THIS ONCE
E|--------------------------|----------------------|
B|--------------------------|----------------------|
G|--------------------------|----------------------|
D|--------------------------|----------------------|
A|--------------------------|----------------------|
D|--0-0-0-5-0--0-7-0-8-0-7--|--0-0-0-5-0--0-7-6-5--| then play bottom
PM  . . . . .  . . . . . .     . . . . .  .

Verse:

   PLAY THIS 3X'S		PLAY THIS ONCE
E|--------------------------|----------------------|
B|--------------------------|----------------------|
G|--------------------------|----------------------|
D|--------------------------|----------------------|
A|--0-0-0-5-0--0-7-0-8-0-7--|--0-0-0-5-0--0-7-6-5--|
D|--0-0-0-5-0--0-7-0-8-0-7--|--0-0-0-5-0--0-7-6-5--| then play bottom
PM  . . . . .  . . . . . .     . . . . .  . . . .

   PLAY THIS 3X'S		PLAY THIS ONCE
E|--------------------------|----------------------|
B|--------------------------|----------------------|
G|--------------------------|----------------------|
D|--------------------------|----------------------|
A|--0-0-0-5-0--0-7-0-8-0-7--|--0-0-0-5-0--0-7-6-5--|
D|--0-0-0-5-0--0-7-0-8-0-7--|--0-0-0-5-0--0-7-6-5--|

Khorus:
  	PLAY ALL THIS 2X'S
E|-------------------------------------------------------------------------------------------|
B|-------------------------------------------------------------------------------------------|
G|-------------------------------------------------------------------------------------------|
D|-------------------------------------------------------------------------------------------|
A|-0-2-3-0--0-2-0-0-2-3-2-0-2-3-0--0-2-0-0-2-3-2-0-2-3-0--0-2-0-0-2-3-0--0-0-0-0-0-0-0-0-0-0-|
D|-0-2-3-0--0-2-0-0-2-3-2-0-2-3-0--0-2-0-0-2-3-2-0-2-3-0--0-2-0-0-2-3-0--0-0-0-0-0-0-0-0-0-0-|
PM . . . .  . . . . . . . . . . .  . . . . . . . . . . .  . . . . . . .  . . . . . . . . . .

Bridge:
  PLAY THIS 8X'S		PLAY THIS 5X'S
E|-------------------------|----------------------------|
B|-------------------------|----------------------------|
G|-------------------------|----------------------------|
D|-------------------------|----------------------------|
A|-------------------------|--0-0-5-0--0-0-11-11-11-12--|
D|--0-0-5-0--0-0-9-9-9-12--|--0-0-5-0--0-0- 9- 9- 9-12--|

Outro:
  	PLAY ALL THIS 3X'S
E|-------------------------------------------------------------------------------------------|
B|-------------------------------------------------------------------------------------------|
G|-------------------------------------------------------------------------------------------|
D|-------------------------------------------------------------------------------------------|
A|-0-2-3-0--0-2-0-0-2-3-2-0-2-3-0--0-2-0-0-2-3-2-0-2-3-0--0-2-0-0-2-3-0--0-0-0-0-0-0-0-0-0-0-|
D|-0-2-3-0--0-2-0-0-2-3-2-0-2-3-0--0-2-0-0-2-3-2-0-2-3-0--0-2-0-0-2-3-0--0-0-0-0-0-0-0-0-0-0-|
PM . . . .  . . . . . . . . . . .  . . . . . . . . . . .  . . . . . . .  . . . . . . . . . .

E|---------|
B|---------|
G|---------| end with this
D|---------| play once
A|---------|
D|-0-2-3-0-|


That's the whole song...it's kinda easy, i put them in order ASESINO plays them in...later days
Comments