Bruce Springsteen - The E Street Shuffle Chords & Tabs

 

The E Street Shuffle Chords & Tabs

Bruce Springsteen Chords & Tabs

Version: 1 Type: Tab 0 ratings
1 star 2 stars 3 stars 4 stars 5 stars
comments

The E Street Shuffle Tab

   
The E Street Shuffle - Bruce Springsteen

Intro: Horns | Am | Em | Dm | G C |

C
--8--8-10/12-10--8--|--8--8-10/12--|--8--8-10/12-10--8--|--8--8-10-8-10-8--|
--8--8-10/12-10--8--|--8--8-10/12--|--8--8-10/12-10--8--|--8--8-10-8-10-8--|
--9--9-----------9--|--9--9-10/12--|--9--9-----------9--|--9--9------------|
-10-10----------10--|-10-10--------|-10-10----------10--|-10-10------------|
-10-10----------10--|-10-10--------|-10-10----------10--|-10-10------------|
--8--8-----------8--|--8--8--------|--8--8-----------8--|--8--8------------|


C
Sparks fly on E Street when the boy prophets walk it handsome and hot
All the little girls' souls grow weak when the manchild gives them a double shot
F7
The schoolboy bops pull out all the stops on a Friday night
      C
The teenage tramps in skin-tight pants do the E Street dance and everything's all right
     G7
Them kids down there are either dancin' or hooked up in a scuffle
             Am                          F7
Dressed in snakeskin suits backed with Detroit muscle
         Ab7       G7        C
They're doin' the E Street Shuffle

Now those E Street brats in twilight dual flashlight phantoms in full star stream
Down fire trails on silver nights with blonde girls playing sweet sixteen
The newsboys say the heat's been bad since Power 13 gave a trooper all he had in a summer scuffle
And Power's girl, Little Angel, been on the corner keepin' those crazy boys out of trouble
Little Angel steps the shuffle like she ain't got no brains
She's deaf in combat down on Lover's Lane
She drives all them local boys insane
Yes, she does

Bridge:
[ Tab from: http://www.guitartabs.cc/tabs/b/bruce_springsteen/the_e_street_shuffle_tab.html ]
Little Angel says,
Am                    Dm  Em          Am
"Oh oh oh (oh oh oh), everybody form a line
Am                    Dm  Em          Am 
Oh oh oh (oh oh oh),  everybody form a line"   Em Dm G7

Well the sparks fly on E Street when the boy prophets walk it handsome and hot
All them little girls' souls grow weak when the manchild gives them a double shot
Little Angel hangs out at Easy Joe's, it's a club where all the riot squad goes when they're cashin' in for 
a cheap hustle
But them boys are still on the corner loose and doin' that lazy E Street Shuffle
As them sweet summer nights turn into summer dreams Little Angel picks up Power and he slips on his jeans
And they move on out down to the scene
All the kids are there

 bass break: Ab7
guitar solo: Bbm7 Ebm7 Bbm7 Ebm7 Bbm7 Ebm7
 drum break: Bbm7

| Bbm7 | Bbm7 | Ebm7 | Ebm7 |

Bbm7                       Ebm7
-6-6---3----|--6-6-6-3----|-------------|----------3--|
-----6---6--|----------6--|--4-4--------|--4-4-4-6----|
------------|-------------|------3-5-3--|-------------|
------------|-------------|-------------|-------------|
------------|-------------|-------------|-------------|
------------|-------------|-------------|-------------| repeat to fade out


  Am Em Dm G  C  F7 G7 Ab7 Bbm7 Ebm7
--0--0--1--3--0--1--1--4---6----6---
--1--0--3--0--1--1--0--4---6----7---
--2--0--2--0--0--2--0--5---6----6---
--2--2--0--0--2--1--0--4---6----8---
--0--2-----2--3--3--2--6---8----6---
-----0-----3-----1--3--4---6--------


enjoy!!!
Comments